ISO-10303-21;
HEADER;
FILE_DESCRIPTION (( 'STEP AP203' ),
    '1' );
FILE_NAME ('UM ER 32 SLOTTED.STEP',
    '2019-04-22T07:20:23',
    ( '' ),
    ( '' ),
    'SwSTEP 2.0',
    'SolidWorks 2014',
    '' );
FILE_SCHEMA (( 'CONFIG_CONTROL_DESIGN' ));
ENDSEC;

DATA;
#1 = CC_DESIGN_PERSON_AND_ORGANIZATION_ASSIGNMENT ( #56, #240, ( #290 ) ) ;
#2 = CARTESIAN_POINT ( 'NONE',  ( 0.0000000000000000000, 0.0000000000000000000, 43.26054273766887100 ) ) ;
#3 = AXIS2_PLACEMENT_3D ( 'NONE', #78, #109, #28 ) ;
#4 = ORIENTED_EDGE ( 'NONE', *, *, #265, .F. ) ;
#5 = DIRECTION ( 'NONE',  ( 1.000000000000000000, 0.0000000000000000000, 0.0000000000000000000 ) ) ;
#6 = AXIS2_PLACEMENT_3D ( 'NONE', #204, #36, #121 ) ;
#7 = DIRECTION ( 'NONE',  ( 1.000000000000000000, 0.0000000000000000000, 0.0000000000000000000 ) ) ;
#8 = ORIENTED_EDGE ( 'NONE', *, *, #114, .T. ) ;
#9 = ORIENTED_EDGE ( 'NONE', *, *, #132, .F. ) ;
#10 = DIRECTION ( 'NONE',  ( -0.0000000000000000000, -0.0000000000000000000, 1.000000000000000000 ) ) ;
#11 = AXIS2_PLACEMENT_3D ( 'NONE', #329, #10, #210 ) ;
#12 = LOCAL_TIME ( 12, 50, 23.00000000000000000, #165 ) ;
#13 = ORIENTED_EDGE ( 'NONE', *, *, #39, .F. ) ;
#14 = VECTOR ( 'NONE', #116, 1000.000000000000000 ) ;
#15 = PERSON_AND_ORGANIZATION ( #51, #333 ) ;
#16 = COORDINATED_UNIVERSAL_TIME_OFFSET ( 5, 30, .AHEAD. ) ;
#17 = EDGE_LOOP ( 'NONE', ( #145, #57, #9, #282 ) ) ;
#18 = PRODUCT_DEFINITION_SHAPE ( 'NONE', 'NONE',  #225 ) ;
#19 = LOCAL_TIME ( 12, 50, 23.00000000000000000, #16 ) ;
#20 = DIRECTION ( 'NONE',  ( -0.0000000000000000000, -0.0000000000000000000, 1.000000000000000000 ) ) ;
#21 = ORIENTED_EDGE ( 'NONE', *, *, #171, .F. ) ;
#22 = PERSON_AND_ORGANIZATION_ROLE ( 'creator' ) ;
#23 = CARTESIAN_POINT ( 'NONE',  ( 0.0000000000000000000, 0.0000000000000000000, 43.26054273766887100 ) ) ;
#24 = AXIS2_PLACEMENT_3D ( 'NONE', #35, #331, #310 ) ;
#25 = CARTESIAN_POINT ( 'NONE',  ( 0.0000000000000000000, 0.0000000000000000000, 9.750000000000008900 ) ) ;
#26 = CC_DESIGN_APPROVAL ( #230, ( #300 ) ) ;
#27 = EDGE_LOOP ( 'NONE', ( #334, #124, #289, #13 ) ) ;
#28 = DIRECTION ( 'NONE',  ( 1.000000000000000000, 0.0000000000000000000, 0.0000000000000000000 ) ) ;
#29 = VECTOR ( 'NONE', #307, 1000.000000000000000 ) ;
#30 = VERTEX_POINT ( 'NONE', #312 ) ;
#31 = CARTESIAN_POINT ( 'NONE',  ( 0.0000000000000000000, 0.0000000000000000000, -11.25000000000000400 ) ) ;
#32 = CARTESIAN_POINT ( 'NONE',  ( 0.0000000000000000000, 0.0000000000000000000, -11.24999999999999600 ) ) ;
#33 = VERTEX_POINT ( 'NONE', #125 ) ;
#34 = ORIENTED_EDGE ( 'NONE', *, *, #286, .F. ) ;
#35 = CARTESIAN_POINT ( 'NONE',  ( 0.0000000000000000000, 0.0000000000000000000, 9.750000000000008900 ) ) ;
#36 = DIRECTION ( 'NONE',  ( -0.0000000000000000000, -0.0000000000000000000, 1.000000000000000000 ) ) ;
#37 = CIRCLE ( 'NONE', #93, 25.00000000000000000 ) ;
#38 = CIRCLE ( 'NONE', #159, 10.00000000000000000 ) ;
#39 = EDGE_CURVE ( 'NONE', #317, #167, #37, .T. ) ;
#40 = CARTESIAN_POINT ( 'NONE',  ( -25.00000000000000000, 0.0000000000000000000, 9.750000000000008900 ) ) ;
#41 = AXIS2_PLACEMENT_3D ( 'NONE', #195, #113, #198 ) ;
#42 = CIRCLE ( 'NONE', #217, 10.00000000000000000 ) ;
#43 = LINE ( 'NONE', #158, #308 ) ;
#44 = PERSON_AND_ORGANIZATION ( #51, #333 ) ;
#45 = PRODUCT_RELATED_PRODUCT_CATEGORY ( 'detail', '', ( #290 ) ) ;
#46 = VECTOR ( 'NONE', #213, 1000.000000000000000 ) ;
#47 = AXIS2_PLACEMENT_3D ( 'NONE', #68, #338, #253 ) ;
#48 = APPROVAL_ROLE ( '' ) ;
#49 = DIRECTION ( 'NONE',  ( -0.0000000000000000000, -0.0000000000000000000, 1.000000000000000000 ) ) ;
#50 = DIRECTION ( 'NONE',  ( -0.0000000000000000000, -0.0000000000000000000, 1.000000000000000000 ) ) ;
#51 = PERSON ( 'UNSPECIFIED', 'UNSPECIFIED', 'UNSPECIFIED', ('UNSPECIFIED'), ('UNSPECIFIED'), ('UNSPECIFIED') ) ;
#52 = CYLINDRICAL_SURFACE ( 'NONE', #284, 25.00000000000000000 ) ;
#53 = CARTESIAN_POINT ( 'NONE',  ( 25.00000000000000000, 0.0000000000000000000, -8.363248654051885100 ) ) ;
#54 = DIRECTION ( 'NONE',  ( 1.000000000000000000, 0.0000000000000000000, 0.0000000000000000000 ) ) ;
#55 = COORDINATED_UNIVERSAL_TIME_OFFSET ( 5, 30, .AHEAD. ) ;
#56 = PERSON_AND_ORGANIZATION ( #51, #333 ) ;
#57 = ORIENTED_EDGE ( 'NONE', *, *, #95, .T. ) ;
#58 = VECTOR ( 'NONE', #170, 1000.000000000000000 ) ;
#59 = CONICAL_SURFACE ( 'NONE', #172, 25.00000000000000000, 0.7853981633974506100 ) ;
#60 = EDGE_CURVE ( 'NONE', #135, #33, #38, .T. ) ;
#61 = CARTESIAN_POINT ( 'NONE',  ( 0.0000000000000000000, 0.0000000000000000000, -11.24999999999999600 ) ) ;
#62 = CALENDAR_DATE ( 2019, 22, 4 ) ;
#63 = EDGE_LOOP ( 'NONE', ( #311, #86, #223, #214 ) ) ;
#64 = CYLINDRICAL_SURFACE ( 'NONE', #309, 25.00000000000000000 ) ;
#65 = CARTESIAN_POINT ( 'NONE',  ( 0.0000000000000000000, 9.999999999999994700, 11.25000000000000000 ) ) ;
#66 = DATE_AND_TIME ( #199, #12 ) ;
#67 = CLOSED_SHELL ( 'NONE', ( #144, #142, #203, #304, #74, #80, #348, #110, #326, #280 ) ) ;
#68 = CARTESIAN_POINT ( 'NONE',  ( 0.0000000000000000000, 0.0000000000000000000, 43.26054273766887100 ) ) ;
#69 = DATE_AND_TIME ( #99, #19 ) ;
#70 = ORIENTED_EDGE ( 'NONE', *, *, #328, .F. ) ;
#71 = EDGE_CURVE ( 'NONE', #94, #167, #323, .T. ) ;
#72 = DIRECTION ( 'NONE',  ( 1.000000000000000000, 0.0000000000000000000, 0.0000000000000000000 ) ) ;
#73 = EDGE_CURVE ( 'NONE', #337, #177, #277, .T. ) ;
#74 = ADVANCED_FACE ( 'NONE', ( #123 ), #219, .F. ) ;
#75 = APPLICATION_PROTOCOL_DEFINITION ( 'international standard', 'config_control_design', 1994, #222 ) ;
#76 = CARTESIAN_POINT ( 'NONE',  ( 9.999999999999998200, 0.0000000000000000000, 43.26054273766887100 ) ) ;
#77 = VECTOR ( 'NONE', #103, 1000.000000000000000 ) ;
#78 = CARTESIAN_POINT ( 'NONE',  ( 0.0000000000000000000, 0.0000000000000000000, -11.24999999999999600 ) ) ;
#79 = PERSON_AND_ORGANIZATION ( #51, #333 ) ;
#80 = ADVANCED_FACE ( 'NONE', ( #242, #168 ), #152, .F. ) ;
#81 = CARTESIAN_POINT ( 'NONE',  ( 9.999999999999994700, 0.0000000000000000000, 11.24999999999999600 ) ) ;
#82 = ORIENTED_EDGE ( 'NONE', *, *, #294, .F. ) ;
#83 = DIRECTION ( 'NONE',  ( -0.0000000000000000000, -0.0000000000000000000, 1.000000000000000000 ) ) ;
#84 = CARTESIAN_POINT ( 'NONE',  ( -9.999999999999998200, 1.224646799147353100E-015, 43.26054273766887100 ) ) ;
#85 = EDGE_CURVE ( 'NONE', #177, #251, #98, .T. ) ;
#86 = ORIENTED_EDGE ( 'NONE', *, *, #319, .T. ) ;
#87 = CARTESIAN_POINT ( 'NONE',  ( 25.00000000000000000, 3.061616997868383000E-015, 9.750000000000008900 ) ) ;
#88 = LOCAL_TIME ( 12, 50, 23.00000000000000000, #316 ) ;
#89 = DIRECTION ( 'NONE',  ( -0.0000000000000000000, -0.0000000000000000000, 1.000000000000000000 ) ) ;
#90 = ORIENTED_EDGE ( 'NONE', *, *, #85, .F. ) ;
#91 = CARTESIAN_POINT ( 'NONE',  ( 0.0000000000000000000, 0.0000000000000000000, -11.25000000000000400 ) ) ;
#92 = CALENDAR_DATE ( 2019, 22, 4 ) ;
#93 = AXIS2_PLACEMENT_3D ( 'NONE', #285, #89, #252 ) ;
#94 = VERTEX_POINT ( 'NONE', #183 ) ;
#95 = EDGE_CURVE ( 'NONE', #317, #177, #43, .T. ) ;
#96 = CC_DESIGN_SECURITY_CLASSIFICATION ( #300, ( #147 ) ) ;
#97 = EDGE_CURVE ( 'NONE', #167, #317, #115, .T. ) ;
#98 = CIRCLE ( 'NONE', #161, 25.00000000000000000 ) ;
#99 = CALENDAR_DATE ( 2019, 22, 4 ) ;
#100 = DIRECTION ( 'NONE',  ( 1.000000000000000000, 0.0000000000000000000, 0.0000000000000000000 ) ) ;
#101 = EDGE_LOOP ( 'NONE', ( #342, #106, #257, #137 ) ) ;
#102 = APPROVAL_ROLE ( '' ) ;
#103 = DIRECTION ( 'NONE',  ( -0.0000000000000000000, -0.0000000000000000000, 1.000000000000000000 ) ) ;
#104 =( LENGTH_UNIT ( ) NAMED_UNIT ( * ) SI_UNIT ( .MILLI., .METRE. ) );
#105 = DIRECTION ( 'NONE',  ( -1.000000000000000000, 0.0000000000000000000, 0.0000000000000000000 ) ) ;
#106 = ORIENTED_EDGE ( 'NONE', *, *, #328, .T. ) ;
#107 = CARTESIAN_POINT ( 'NONE',  ( 0.0000000000000000000, 0.0000000000000000000, 11.25000000000000400 ) ) ;
#108 = AXIS2_PLACEMENT_3D ( 'NONE', #163, #248, #227 ) ;
#109 = DIRECTION ( 'NONE',  ( -0.0000000000000000000, -0.0000000000000000000, 1.000000000000000000 ) ) ;
#110 = ADVANCED_FACE ( 'NONE', ( #236 ), #52, .T. ) ;
#111 = VERTEX_POINT ( 'NONE', #346 ) ;
#112 = EDGE_LOOP ( 'NONE', ( #174, #34 ) ) ;
#113 = DIRECTION ( 'NONE',  ( -0.0000000000000000000, -0.0000000000000000000, 1.000000000000000000 ) ) ;
#114 = EDGE_CURVE ( 'NONE', #194, #209, #216, .T. ) ;
#115 = CIRCLE ( 'NONE', #118, 25.00000000000000000 ) ;
#116 = DIRECTION ( 'NONE',  ( -0.0000000000000000000, -0.0000000000000000000, 1.000000000000000000 ) ) ;
#117 = AXIS2_PLACEMENT_3D ( 'NONE', #32, #276, #5 ) ;
#118 = AXIS2_PLACEMENT_3D ( 'NONE', #241, #20, #261 ) ;
#119 = EDGE_CURVE ( 'NONE', #167, #251, #343, .T. ) ;
#120 = CC_DESIGN_PERSON_AND_ORGANIZATION_ASSIGNMENT ( #238, #157, ( #300 ) ) ;
#121 = DIRECTION ( 'NONE',  ( 1.000000000000000000, 0.0000000000000000000, 0.0000000000000000000 ) ) ;
#122 = CC_DESIGN_APPROVAL ( #180, ( #147 ) ) ;
#123 = FACE_OUTER_BOUND ( 'NONE', #128, .T. ) ;
#124 = ORIENTED_EDGE ( 'NONE', *, *, #272, .T. ) ;
#125 = CARTESIAN_POINT ( 'NONE',  ( -10.00000000000000000, 1.224646799147353300E-015, -11.25000000000000400 ) ) ;
#126 = CIRCLE ( 'NONE', #11, 20.00000000000000000 ) ;
#127 = ORIENTED_EDGE ( 'NONE', *, *, #265, .T. ) ;
#128 = EDGE_LOOP ( 'NONE', ( #4, #234, #298, #8 ) ) ;
#129 = CIRCLE ( 'NONE', #6, 23.50000000000000000 ) ;
#130 = CARTESIAN_POINT ( 'NONE',  ( 10.00000000000000000, 0.0000000000000000000, -11.25000000000000400 ) ) ;
#131 = APPROVAL_STATUS ( 'not_yet_approved' ) ;
#132 = EDGE_CURVE ( 'NONE', #251, #177, #196, .T. ) ;
#133 = DIRECTION ( 'NONE',  ( -0.0000000000000000000, -0.0000000000000000000, 1.000000000000000000 ) ) ;
#134 = SECURITY_CLASSIFICATION_LEVEL ( 'unclassified' ) ;
#135 = VERTEX_POINT ( 'NONE', #130 ) ;
#136 = ADVANCED_BREP_SHAPE_REPRESENTATION ( 'UM ER 32 SLOTTED', ( #208, #175 ), #325 ) ;
#137 = ORIENTED_EDGE ( 'NONE', *, *, #73, .F. ) ;
#138 = APPROVAL_STATUS ( 'not_yet_approved' ) ;
#139 = LINE ( 'NONE', #76, #169 ) ;
#140 = DIRECTION ( 'NONE',  ( 1.000000000000000000, 0.0000000000000000000, 0.0000000000000000000 ) ) ;
#141 = ORIENTED_EDGE ( 'NONE', *, *, #286, .T. ) ;
#142 = ADVANCED_FACE ( 'NONE', ( #330 ), #64, .T. ) ;
#143 = DIRECTION ( 'NONE',  ( 1.000000000000000000, 0.0000000000000000000, 0.0000000000000000000 ) ) ;
#144 = ADVANCED_FACE ( 'NONE', ( #197 ), #247, .T. ) ;
#145 = ORIENTED_EDGE ( 'NONE', *, *, #97, .T. ) ;
#146 = EDGE_LOOP ( 'NONE', ( #335, #215 ) ) ;
#147 = PRODUCT_DEFINITION_FORMATION_WITH_SPECIFIED_SOURCE ( 'ANY', '', #290, .NOT_KNOWN. ) ;
#148 = PLANE ( 'NONE',  #108 ) ;
#149 = SHAPE_DEFINITION_REPRESENTATION ( #18, #136 ) ;
#150 = ORIENTED_EDGE ( 'NONE', *, *, #119, .T. ) ;
#151 = CARTESIAN_POINT ( 'NONE',  ( -23.50000000000000000, 0.0000000000000000000, 11.25000000000000400 ) ) ;
#152 = PLANE ( 'NONE',  #301 ) ;
#153 = CIRCLE ( 'NONE', #117, 20.00000000000000000 ) ;
#154 = CC_DESIGN_DATE_AND_TIME_ASSIGNMENT ( #162, #292, ( #225 ) ) ;
#155 = DIRECTION ( 'NONE',  ( -0.0000000000000000000, -0.0000000000000000000, 1.000000000000000000 ) ) ;
#156 = APPROVAL_DATE_TIME ( #66, #230 ) ;
#157 = PERSON_AND_ORGANIZATION_ROLE ( 'classification_officer' ) ;
#158 = CARTESIAN_POINT ( 'NONE',  ( -25.00000000000000000, 3.061616997868383000E-015, 43.26054273766887100 ) ) ;
#159 = AXIS2_PLACEMENT_3D ( 'NONE', #91, #233, #254 ) ;
#160 = DATE_TIME_ROLE ( 'classification_date' ) ;
#161 = AXIS2_PLACEMENT_3D ( 'NONE', #179, #133, #237 ) ;
#162 = DATE_AND_TIME ( #62, #88 ) ;
#163 = CARTESIAN_POINT ( 'NONE',  ( 0.0000000000000000000, 20.00000000000000000, -11.25000000000000000 ) ) ;
#164 = FACE_OUTER_BOUND ( 'NONE', #101, .T. ) ;
#165 = COORDINATED_UNIVERSAL_TIME_OFFSET ( 5, 30, .AHEAD. ) ;
#166 = AXIS2_PLACEMENT_3D ( 'NONE', #224, #299, #321 ) ;
#167 = VERTEX_POINT ( 'NONE', #53 ) ;
#168 = FACE_OUTER_BOUND ( 'NONE', #146, .T. ) ;
#169 = VECTOR ( 'NONE', #83, 1000.000000000000000 ) ;
#170 = DIRECTION ( 'NONE',  ( 0.8660254037844400400, 0.0000000000000000000, 0.4999999999999976100 ) ) ;
#171 = EDGE_CURVE ( 'NONE', #135, #194, #139, .T. ) ;
#172 = AXIS2_PLACEMENT_3D ( 'NONE', #25, #264, #105 ) ;
#173 = DATE_AND_TIME ( #92, #322 ) ;
#174 = ORIENTED_EDGE ( 'NONE', *, *, #114, .F. ) ;
#175 = AXIS2_PLACEMENT_3D ( 'NONE', #260, #220, #72 ) ;
#176 = LINE ( 'NONE', #87, #302 ) ;
#177 = VERTEX_POINT ( 'NONE', #243 ) ;
#178 = APPROVAL_ROLE ( '' ) ;
#179 = CARTESIAN_POINT ( 'NONE',  ( 0.0000000000000000000, 0.0000000000000000000, 9.750000000000008900 ) ) ;
#180 = APPROVAL ( #131, 'UNSPECIFIED' ) ;
#181 = APPLICATION_CONTEXT ( 'configuration controlled 3d designs of mechanical parts and assemblies' ) ;
#182 = CIRCLE ( 'NONE', #41, 9.999999999999994700 ) ;
#183 = CARTESIAN_POINT ( 'NONE',  ( 20.00000000000000000, 0.0000000000000000000, -11.24999999999999600 ) ) ;
#184 = PERSON_AND_ORGANIZATION_ROLE ( 'design_supplier' ) ;
#185 = DIRECTION ( 'NONE',  ( 1.000000000000000000, 0.0000000000000000000, 0.0000000000000000000 ) ) ;
#186 = AXIS2_PLACEMENT_3D ( 'NONE', #61, #283, #7 ) ;
#187 = APPROVAL_STATUS ( 'not_yet_approved' ) ;
#188 = ORIENTED_EDGE ( 'NONE', *, *, #39, .T. ) ;
#189 = FACE_OUTER_BOUND ( 'NONE', #201, .T. ) ;
#190 = LINE ( 'NONE', #84, #14 ) ;
#191 = CALENDAR_DATE ( 2019, 22, 4 ) ;
#192 = APPROVAL_DATE_TIME ( #69, #244 ) ;
#193 = ORIENTED_EDGE ( 'NONE', *, *, #340, .F. ) ;
#194 = VERTEX_POINT ( 'NONE', #81 ) ;
#195 = CARTESIAN_POINT ( 'NONE',  ( 0.0000000000000000000, 0.0000000000000000000, 11.24999999999999600 ) ) ;
#196 = CIRCLE ( 'NONE', #166, 25.00000000000000000 ) ;
#197 = FACE_OUTER_BOUND ( 'NONE', #63, .T. ) ;
#198 = DIRECTION ( 'NONE',  ( 1.000000000000000000, 0.0000000000000000000, 0.0000000000000000000 ) ) ;
#199 = CALENDAR_DATE ( 2019, 22, 4 ) ;
#200 = EDGE_CURVE ( 'NONE', #30, #337, #202, .T. ) ;
#201 = EDGE_LOOP ( 'NONE', ( #82, #232 ) ) ;
#202 = CIRCLE ( 'NONE', #256, 23.50000000000000000 ) ;
#203 = ADVANCED_FACE ( 'NONE', ( #164 ), #59, .T. ) ;
#204 = CARTESIAN_POINT ( 'NONE',  ( 0.0000000000000000000, 0.0000000000000000000, 11.25000000000000400 ) ) ;
#205 = APPROVAL_PERSON_ORGANIZATION ( #341, #230, #48 ) ;
#206 = APPROVAL_DATE_TIME ( #332, #180 ) ;
#207 = CONICAL_SURFACE ( 'NONE', #24, 25.00000000000000000, 0.7853981633974506100 ) ;
#208 = MANIFOLD_SOLID_BREP ( 'Revolve1', #67 ) ;
#209 = VERTEX_POINT ( 'NONE', #297 ) ;
#210 = DIRECTION ( 'NONE',  ( 1.000000000000000000, 0.0000000000000000000, 0.0000000000000000000 ) ) ;
#211 = CARTESIAN_POINT ( 'NONE',  ( 20.00000000000000000, 0.0000000000000000000, -11.24999999999999600 ) ) ;
#212 = FACE_OUTER_BOUND ( 'NONE', #295, .T. ) ;
#213 = DIRECTION ( 'NONE',  ( -0.7071067811865491300, 0.0000000000000000000, -0.7071067811865459100 ) ) ;
#214 = ORIENTED_EDGE ( 'NONE', *, *, #71, .F. ) ;
#215 = ORIENTED_EDGE ( 'NONE', *, *, #200, .T. ) ;
#216 = CIRCLE ( 'NONE', #269, 9.999999999999994700 ) ;
#217 = AXIS2_PLACEMENT_3D ( 'NONE', #31, #246, #143 ) ;
#218 = PERSON_AND_ORGANIZATION ( #51, #333 ) ;
#219 = CYLINDRICAL_SURFACE ( 'NONE', #47, 9.999999999999998200 ) ;
#220 = DIRECTION ( 'NONE',  ( 0.0000000000000000000, 0.0000000000000000000, 1.000000000000000000 ) ) ;
#221 = DIRECTION ( 'NONE',  ( -0.0000000000000000000, -0.0000000000000000000, 1.000000000000000000 ) ) ;
#222 = APPLICATION_CONTEXT ( 'configuration controlled 3d designs of mechanical parts and assemblies' ) ;
#223 = ORIENTED_EDGE ( 'NONE', *, *, #97, .F. ) ;
#224 = CARTESIAN_POINT ( 'NONE',  ( 0.0000000000000000000, 0.0000000000000000000, 9.750000000000008900 ) ) ;
#225 = PRODUCT_DEFINITION ( 'UNKNOWN', '', #147, #324 ) ;
#226 = ORIENTED_EDGE ( 'NONE', *, *, #95, .F. ) ;
#227 = DIRECTION ( 'NONE',  ( 1.000000000000000000, 0.0000000000000000000, 0.0000000000000000000 ) ) ;
#228 = FACE_BOUND ( 'NONE', #235, .T. ) ;
#229 = AXIS2_PLACEMENT_3D ( 'NONE', #303, #327, #271 ) ;
#230 = APPROVAL ( #187, 'UNSPECIFIED' ) ;
#231 = LINE ( 'NONE', #306, #29 ) ;
#232 = ORIENTED_EDGE ( 'NONE', *, *, #272, .F. ) ;
#233 = DIRECTION ( 'NONE',  ( -0.0000000000000000000, -0.0000000000000000000, 1.000000000000000000 ) ) ;
#234 = ORIENTED_EDGE ( 'NONE', *, *, #60, .F. ) ;
#235 = EDGE_LOOP ( 'NONE', ( #270, #275 ) ) ;
#236 = FACE_OUTER_BOUND ( 'NONE', #345, .T. ) ;
#237 = DIRECTION ( 'NONE',  ( 1.000000000000000000, 0.0000000000000000000, 0.0000000000000000000 ) ) ;
#238 = PERSON_AND_ORGANIZATION ( #51, #333 ) ;
#239 = DIRECTION ( 'NONE',  ( -1.000000000000000000, 0.0000000000000000000, -0.0000000000000000000 ) ) ;
#240 = PERSON_AND_ORGANIZATION_ROLE ( 'design_owner' ) ;
#241 = CARTESIAN_POINT ( 'NONE',  ( 0.0000000000000000000, 0.0000000000000000000, -8.363248654051885100 ) ) ;
#242 = FACE_BOUND ( 'NONE', #112, .T. ) ;
#243 = CARTESIAN_POINT ( 'NONE',  ( -25.00000000000000000, 0.0000000000000000000, 9.750000000000008900 ) ) ;
#244 = APPROVAL ( #138, 'UNSPECIFIED' ) ;
#245 = CARTESIAN_POINT ( 'NONE',  ( 25.00000000000000000, 3.061616997868383000E-015, 9.750000000000008900 ) ) ;
#246 = DIRECTION ( 'NONE',  ( -0.0000000000000000000, -0.0000000000000000000, 1.000000000000000000 ) ) ;
#247 = CONICAL_SURFACE ( 'NONE', #3, 20.00000000000000000, 1.047197551196600500 ) ;
#248 = DIRECTION ( 'NONE',  ( 0.0000000000000000000, -0.0000000000000000000, 1.000000000000000000 ) ) ;
#249 = DIRECTION ( 'NONE',  ( 0.7071067811865491300, 8.659560562354952600E-017, -0.7071067811865459100 ) ) ;
#250 = LOCAL_TIME ( 12, 50, 23.00000000000000000, #55 ) ;
#251 = VERTEX_POINT ( 'NONE', #245 ) ;
#252 = DIRECTION ( 'NONE',  ( 1.000000000000000000, 0.0000000000000000000, 0.0000000000000000000 ) ) ;
#253 = DIRECTION ( 'NONE',  ( 1.000000000000000000, 0.0000000000000000000, 0.0000000000000000000 ) ) ;
#254 = DIRECTION ( 'NONE',  ( 1.000000000000000000, 0.0000000000000000000, 0.0000000000000000000 ) ) ;
#255 = CONICAL_SURFACE ( 'NONE', #186, 20.00000000000000000, 1.047197551196600500 ) ;
#256 = AXIS2_PLACEMENT_3D ( 'NONE', #107, #50, #54 ) ;
#257 = ORIENTED_EDGE ( 'NONE', *, *, #132, .T. ) ;
#258 = CARTESIAN_POINT ( 'NONE',  ( 0.0000000000000000000, 0.0000000000000000000, 11.24999999999999600 ) ) ;
#259 =( NAMED_UNIT ( * ) PLANE_ANGLE_UNIT ( ) SI_UNIT ( $, .RADIAN. ) );
#260 = CARTESIAN_POINT ( 'NONE',  ( 0.0000000000000000000, 0.0000000000000000000, 0.0000000000000000000 ) ) ;
#261 = DIRECTION ( 'NONE',  ( 1.000000000000000000, 0.0000000000000000000, 0.0000000000000000000 ) ) ;
#262 = PERSON_AND_ORGANIZATION_ROLE ( 'creator' ) ;
#263 = EDGE_LOOP ( 'NONE', ( #320, #127, #141, #21 ) ) ;
#264 = DIRECTION ( 'NONE',  ( 0.0000000000000000000, 0.0000000000000000000, -1.000000000000000000 ) ) ;
#265 = EDGE_CURVE ( 'NONE', #33, #209, #190, .T. ) ;
#266 = DIRECTION ( 'NONE',  ( -0.0000000000000000000, -0.0000000000000000000, 1.000000000000000000 ) ) ;
#267 = COORDINATED_UNIVERSAL_TIME_OFFSET ( 5, 30, .AHEAD. ) ;
#268 = APPROVAL_PERSON_ORGANIZATION ( #15, #180, #102 ) ;
#269 = AXIS2_PLACEMENT_3D ( 'NONE', #258, #49, #100 ) ;
#270 = ORIENTED_EDGE ( 'NONE', *, *, #60, .T. ) ;
#271 = DIRECTION ( 'NONE',  ( 1.000000000000000000, 0.0000000000000000000, 0.0000000000000000000 ) ) ;
#272 = EDGE_CURVE ( 'NONE', #111, #94, #153, .T. ) ;
#273 = APPROVAL_PERSON_ORGANIZATION ( #349, #244, #178 ) ;
#274 = ORIENTED_EDGE ( 'NONE', *, *, #85, .T. ) ;
#275 = ORIENTED_EDGE ( 'NONE', *, *, #278, .T. ) ;
#276 = DIRECTION ( 'NONE',  ( -0.0000000000000000000, -0.0000000000000000000, 1.000000000000000000 ) ) ;
#277 = LINE ( 'NONE', #40, #46 ) ;
#278 = EDGE_CURVE ( 'NONE', #33, #135, #42, .T. ) ;
#279 = CARTESIAN_POINT ( 'NONE',  ( -25.00000000000000000, 3.061616997868383000E-015, -8.363248654051885100 ) ) ;
#280 = ADVANCED_FACE ( 'NONE', ( #189, #228 ), #148, .F. ) ;
#281 = CYLINDRICAL_SURFACE ( 'NONE', #229, 9.999999999999998200 ) ;
#282 = ORIENTED_EDGE ( 'NONE', *, *, #119, .F. ) ;
#283 = DIRECTION ( 'NONE',  ( -0.0000000000000000000, -0.0000000000000000000, 1.000000000000000000 ) ) ;
#284 = AXIS2_PLACEMENT_3D ( 'NONE', #23, #155, #185 ) ;
#285 = CARTESIAN_POINT ( 'NONE',  ( 0.0000000000000000000, 0.0000000000000000000, -8.363248654051885100 ) ) ;
#286 = EDGE_CURVE ( 'NONE', #209, #194, #182, .T. ) ;
#287 = CC_DESIGN_PERSON_AND_ORGANIZATION_ASSIGNMENT ( #44, #184, ( #147 ) ) ;
#288 = CC_DESIGN_APPROVAL ( #244, ( #225 ) ) ;
#289 = ORIENTED_EDGE ( 'NONE', *, *, #71, .T. ) ;
#290 = PRODUCT ( 'UM ER 32 SLOTTED', 'UM ER 32 SLOTTED', '', ( #347 ) ) ;
#291 = CARTESIAN_POINT ( 'NONE',  ( 25.00000000000000000, 0.0000000000000000000, 43.26054273766887100 ) ) ;
#292 = DATE_TIME_ROLE ( 'creation_date' ) ;
#293 = FACE_OUTER_BOUND ( 'NONE', #27, .T. ) ;
#294 = EDGE_CURVE ( 'NONE', #94, #111, #126, .T. ) ;
#295 = EDGE_LOOP ( 'NONE', ( #70, #193, #313, #274 ) ) ;
#296 = DIRECTION ( 'NONE',  ( 0.0000000000000000000, 0.0000000000000000000, -1.000000000000000000 ) ) ;
#297 = CARTESIAN_POINT ( 'NONE',  ( -9.999999999999994700, 1.224646799147352900E-015, 11.24999999999999600 ) ) ;
#298 = ORIENTED_EDGE ( 'NONE', *, *, #171, .T. ) ;
#299 = DIRECTION ( 'NONE',  ( -0.0000000000000000000, -0.0000000000000000000, 1.000000000000000000 ) ) ;
#300 = SECURITY_CLASSIFICATION ( '', '', #134 ) ;
#301 = AXIS2_PLACEMENT_3D ( 'NONE', #65, #296, #239 ) ;
#302 = VECTOR ( 'NONE', #249, 1000.000000000000000 ) ;
#303 = CARTESIAN_POINT ( 'NONE',  ( 0.0000000000000000000, 0.0000000000000000000, 43.26054273766887100 ) ) ;
#304 = ADVANCED_FACE ( 'NONE', ( #336 ), #281, .F. ) ;
#305 = CC_DESIGN_DATE_AND_TIME_ASSIGNMENT ( #173, #160, ( #300 ) ) ;
#306 = CARTESIAN_POINT ( 'NONE',  ( -20.00000000000000000, 2.449293598294706500E-015, -11.24999999999999600 ) ) ;
#307 = DIRECTION ( 'NONE',  ( -0.8660254037844400400, 1.060575238724908600E-016, 0.4999999999999976100 ) ) ;
#308 = VECTOR ( 'NONE', #221, 1000.000000000000000 ) ;
#309 = AXIS2_PLACEMENT_3D ( 'NONE', #2, #266, #140 ) ;
#310 = DIRECTION ( 'NONE',  ( -1.000000000000000000, 0.0000000000000000000, 0.0000000000000000000 ) ) ;
#311 = ORIENTED_EDGE ( 'NONE', *, *, #294, .T. ) ;
#312 = CARTESIAN_POINT ( 'NONE',  ( 23.50000000000000000, 2.969768487932332100E-015, 11.25000000000000400 ) ) ;
#313 = ORIENTED_EDGE ( 'NONE', *, *, #73, .T. ) ;
#314 = CC_DESIGN_PERSON_AND_ORGANIZATION_ASSIGNMENT ( #79, #22, ( #225 ) ) ;
#315 = UNCERTAINTY_MEASURE_WITH_UNIT (LENGTH_MEASURE( 1.000000000000000100E-005 ), #104, 'distance_accuracy_value', 'NONE');
#316 = COORDINATED_UNIVERSAL_TIME_OFFSET ( 5, 30, .AHEAD. ) ;
#317 = VERTEX_POINT ( 'NONE', #279 ) ;
#318 = APPLICATION_PROTOCOL_DEFINITION ( 'international standard', 'config_control_design', 1994, #181 ) ;
#319 = EDGE_CURVE ( 'NONE', #111, #317, #231, .T. ) ;
#320 = ORIENTED_EDGE ( 'NONE', *, *, #278, .F. ) ;
#321 = DIRECTION ( 'NONE',  ( 1.000000000000000000, 0.0000000000000000000, 0.0000000000000000000 ) ) ;
#322 = LOCAL_TIME ( 12, 50, 23.00000000000000000, #267 ) ;
#323 = LINE ( 'NONE', #211, #58 ) ;
#324 = DESIGN_CONTEXT ( 'detailed design', #222, 'design' ) ;
#325 =( GEOMETRIC_REPRESENTATION_CONTEXT ( 3 ) GLOBAL_UNCERTAINTY_ASSIGNED_CONTEXT ( ( #315 ) ) GLOBAL_UNIT_ASSIGNED_CONTEXT ( ( #104, #259, #344 ) ) REPRESENTATION_CONTEXT ( 'NONE', 'WORKASPACE' ) );
#326 = ADVANCED_FACE ( 'NONE', ( #293 ), #255, .T. ) ;
#327 = DIRECTION ( 'NONE',  ( -0.0000000000000000000, -0.0000000000000000000, 1.000000000000000000 ) ) ;
#328 = EDGE_CURVE ( 'NONE', #30, #251, #176, .T. ) ;
#329 = CARTESIAN_POINT ( 'NONE',  ( 0.0000000000000000000, 0.0000000000000000000, -11.24999999999999600 ) ) ;
#330 = FACE_OUTER_BOUND ( 'NONE', #17, .T. ) ;
#331 = DIRECTION ( 'NONE',  ( 0.0000000000000000000, 0.0000000000000000000, -1.000000000000000000 ) ) ;
#332 = DATE_AND_TIME ( #191, #250 ) ;
#333 = ORGANIZATION ( 'UNSPECIFIED', 'UNSPECIFIED', '' ) ;
#334 = ORIENTED_EDGE ( 'NONE', *, *, #319, .F. ) ;
#335 = ORIENTED_EDGE ( 'NONE', *, *, #340, .T. ) ;
#336 = FACE_OUTER_BOUND ( 'NONE', #263, .T. ) ;
#337 = VERTEX_POINT ( 'NONE', #151 ) ;
#338 = DIRECTION ( 'NONE',  ( -0.0000000000000000000, -0.0000000000000000000, 1.000000000000000000 ) ) ;
#339 = CC_DESIGN_PERSON_AND_ORGANIZATION_ASSIGNMENT ( #218, #262, ( #147 ) ) ;
#340 = EDGE_CURVE ( 'NONE', #337, #30, #129, .T. ) ;
#341 = PERSON_AND_ORGANIZATION ( #51, #333 ) ;
#342 = ORIENTED_EDGE ( 'NONE', *, *, #200, .F. ) ;
#343 = LINE ( 'NONE', #291, #77 ) ;
#344 =( NAMED_UNIT ( * ) SI_UNIT ( $, .STERADIAN. ) SOLID_ANGLE_UNIT ( ) );
#345 = EDGE_LOOP ( 'NONE', ( #226, #188, #150, #90 ) ) ;
#346 = CARTESIAN_POINT ( 'NONE',  ( -20.00000000000000000, 2.755455298081544800E-015, -11.24999999999999600 ) ) ;
#347 = MECHANICAL_CONTEXT ( 'NONE', #181, 'mechanical' ) ;
#348 = ADVANCED_FACE ( 'NONE', ( #212 ), #207, .T. ) ;
#349 = PERSON_AND_ORGANIZATION ( #51, #333 ) ;
ENDSEC;
END-ISO-10303-21;
