ISO-10303-21;
HEADER;
FILE_DESCRIPTION (( 'STEP AP203' ),
    '1' );
FILE_NAME ('UM ER 40 SLOTTED.STEP',
    '2019-04-22T07:24:29',
    ( '' ),
    ( '' ),
    'SwSTEP 2.0',
    'SolidWorks 2014',
    '' );
FILE_SCHEMA (( 'CONFIG_CONTROL_DESIGN' ));
ENDSEC;

DATA;
#1 = CARTESIAN_POINT ( 'NONE',  ( 30.00000000000000000, 3.765788907378110500E-015, 12.74999999999999100 ) ) ;
#2 = EDGE_LOOP ( 'NONE', ( #310, #264, #245, #215 ) ) ;
#3 = CARTESIAN_POINT ( 'NONE',  ( 0.0000000000000000000, 0.0000000000000000000, 11.25000000000000400 ) ) ;
#4 = COORDINATED_UNIVERSAL_TIME_OFFSET ( 5, 30, .AHEAD. ) ;
#5 = CC_DESIGN_DATE_AND_TIME_ASSIGNMENT ( #344, #334, ( #237 ) ) ;
#6 = VERTEX_POINT ( 'NONE', #87 ) ;
#7 = CARTESIAN_POINT ( 'NONE',  ( 0.0000000000000000000, 0.0000000000000000000, 11.25000000000000400 ) ) ;
#8 = FACE_OUTER_BOUND ( 'NONE', #311, .T. ) ;
#9 = CYLINDRICAL_SURFACE ( 'NONE', #60, 31.50000000000000000 ) ;
#10 = CC_DESIGN_PERSON_AND_ORGANIZATION_ASSIGNMENT ( #152, #161, ( #237 ) ) ;
#11 = EDGE_LOOP ( 'NONE', ( #265, #82 ) ) ;
#12 = VERTEX_POINT ( 'NONE', #61 ) ;
#13 = AXIS2_PLACEMENT_3D ( 'NONE', #236, #81, #302 ) ;
#14 = APPROVAL_DATE_TIME ( #324, #53 ) ;
#15 = APPLICATION_CONTEXT ( 'configuration controlled 3d designs of mechanical parts and assemblies' ) ;
#16 = DIRECTION ( 'NONE',  ( -0.0000000000000000000, -0.0000000000000000000, 1.000000000000000000 ) ) ;
#17 = EDGE_CURVE ( 'NONE', #339, #217, #225, .T. ) ;
#18 = APPLICATION_PROTOCOL_DEFINITION ( 'international standard', 'config_control_design', 1994, #15 ) ;
#19 = ORIENTED_EDGE ( 'NONE', *, *, #44, .F. ) ;
#20 = ORIENTED_EDGE ( 'NONE', *, *, #23, .T. ) ;
#21 = APPROVAL_ROLE ( '' ) ;
#22 = FACE_OUTER_BOUND ( 'NONE', #213, .T. ) ;
#23 = EDGE_CURVE ( 'NONE', #30, #223, #305, .T. ) ;
#24 = CARTESIAN_POINT ( 'NONE',  ( 0.0000000000000000000, 0.0000000000000000000, -12.74999999999999800 ) ) ;
#25 = CYLINDRICAL_SURFACE ( 'NONE', #112, 12.99999999999999600 ) ;
#26 = ORIENTED_EDGE ( 'NONE', *, *, #193, .F. ) ;
#27 = EDGE_LOOP ( 'NONE', ( #341, #92 ) ) ;
#28 = CARTESIAN_POINT ( 'NONE',  ( 31.50000000000000000, 3.857637417314162700E-015, 11.25000000000000400 ) ) ;
#29 = CARTESIAN_POINT ( 'NONE',  ( 0.0000000000000000000, 0.0000000000000000000, -12.74999999999999800 ) ) ;
#30 = VERTEX_POINT ( 'NONE', #1 ) ;
#31 = CIRCLE ( 'NONE', #142, 31.50000000000000000 ) ;
#32 = LOCAL_TIME ( 12, 54, 29.00000000000000000, #306 ) ;
#33 = CARTESIAN_POINT ( 'NONE',  ( 0.0000000000000000000, 0.0000000000000000000, 12.74999999999999800 ) ) ;
#34 = CARTESIAN_POINT ( 'NONE',  ( 0.0000000000000000000, 0.0000000000000000000, -8.131197846483015500 ) ) ;
#35 = CYLINDRICAL_SURFACE ( 'NONE', #171, 12.99999999999999600 ) ;
#36 = DIRECTION ( 'NONE',  ( -0.0000000000000000000, -0.0000000000000000000, 1.000000000000000000 ) ) ;
#37 = CARTESIAN_POINT ( 'NONE',  ( -30.00000000000000000, 0.0000000000000000000, 12.74999999999999100 ) ) ;
#38 = AXIS2_PLACEMENT_3D ( 'NONE', #29, #274, #194 ) ;
#39 = ORIENTED_EDGE ( 'NONE', *, *, #157, .F. ) ;
#40 = CIRCLE ( 'NONE', #66, 12.99999999999999800 ) ;
#41 = APPROVAL_PERSON_ORGANIZATION ( #234, #53, #21 ) ;
#42 = VECTOR ( 'NONE', #192, 1000.000000000000000 ) ;
#43 = AXIS2_PLACEMENT_3D ( 'NONE', #59, #182, #57 ) ;
#44 = EDGE_CURVE ( 'NONE', #88, #139, #107, .T. ) ;
#45 = ORIENTED_EDGE ( 'NONE', *, *, #276, .F. ) ;
#46 = EDGE_LOOP ( 'NONE', ( #254, #128, #158, #332 ) ) ;
#47 = EDGE_CURVE ( 'NONE', #6, #143, #329, .T. ) ;
#48 = COORDINATED_UNIVERSAL_TIME_OFFSET ( 5, 30, .AHEAD. ) ;
#49 = AXIS2_PLACEMENT_3D ( 'NONE', #34, #296, #118 ) ;
#50 = ORGANIZATION ( 'UNSPECIFIED', 'UNSPECIFIED', '' ) ;
#51 = ORIENTED_EDGE ( 'NONE', *, *, #198, .F. ) ;
#52 = CARTESIAN_POINT ( 'NONE',  ( 0.0000000000000000000, 0.0000000000000000000, 0.0000000000000000000 ) ) ;
#53 = APPROVAL ( #106, 'UNSPECIFIED' ) ;
#54 = APPROVAL_STATUS ( 'not_yet_approved' ) ;
#55 = PERSON_AND_ORGANIZATION_ROLE ( 'design_owner' ) ;
#56 = DATE_TIME_ROLE ( 'classification_date' ) ;
#57 = DIRECTION ( 'NONE',  ( 1.000000000000000000, 0.0000000000000000000, 0.0000000000000000000 ) ) ;
#58 = ORIENTED_EDGE ( 'NONE', *, *, #337, .F. ) ;
#59 = CARTESIAN_POINT ( 'NONE',  ( 0.0000000000000000000, 0.0000000000000000000, -12.74999999999999800 ) ) ;
#60 = AXIS2_PLACEMENT_3D ( 'NONE', #252, #189, #247 ) ;
#61 = CARTESIAN_POINT ( 'NONE',  ( 12.99999999999999800, 0.0000000000000000000, -12.74999999999999800 ) ) ;
#62 = COORDINATED_UNIVERSAL_TIME_OFFSET ( 5, 30, .AHEAD. ) ;
#63 = CYLINDRICAL_SURFACE ( 'NONE', #99, 31.50000000000000000 ) ;
#64 = CARTESIAN_POINT ( 'NONE',  ( -31.50000000000000000, 3.857637417314162700E-015, -8.131197846483015500 ) ) ;
#65 = DIRECTION ( 'NONE',  ( 1.000000000000000000, 0.0000000000000000000, 0.0000000000000000000 ) ) ;
#66 = AXIS2_PLACEMENT_3D ( 'NONE', #258, #121, #83 ) ;
#67 = VERTEX_POINT ( 'NONE', #37 ) ;
#68 = DIRECTION ( 'NONE',  ( 1.000000000000000000, 0.0000000000000000000, 0.0000000000000000000 ) ) ;
#69 = DIRECTION ( 'NONE',  ( 1.000000000000000000, 0.0000000000000000000, 0.0000000000000000000 ) ) ;
#70 = CARTESIAN_POINT ( 'NONE',  ( 0.0000000000000000000, 0.0000000000000000000, 12.74999999999999100 ) ) ;
#71 = ORIENTED_EDGE ( 'NONE', *, *, #149, .F. ) ;
#72 = LINE ( 'NONE', #231, #220 ) ;
#73 = AXIS2_PLACEMENT_3D ( 'NONE', #204, #336, #125 ) ;
#74 = PRODUCT_RELATED_PRODUCT_CATEGORY ( 'detail', '', ( #268 ) ) ;
#75 = EDGE_LOOP ( 'NONE', ( #186, #209, #328, #327 ) ) ;
#76 = FACE_BOUND ( 'NONE', #96, .T. ) ;
#77 = CC_DESIGN_DATE_AND_TIME_ASSIGNMENT ( #184, #56, ( #283 ) ) ;
#78 = LOCAL_TIME ( 12, 54, 29.00000000000000000, #62 ) ;
#79 = DIRECTION ( 'NONE',  ( -0.0000000000000000000, -0.0000000000000000000, 1.000000000000000000 ) ) ;
#80 = DIRECTION ( 'NONE',  ( 1.000000000000000000, 0.0000000000000000000, 0.0000000000000000000 ) ) ;
#81 = DIRECTION ( 'NONE',  ( -0.0000000000000000000, -0.0000000000000000000, 1.000000000000000000 ) ) ;
#82 = ORIENTED_EDGE ( 'NONE', *, *, #157, .T. ) ;
#83 = DIRECTION ( 'NONE',  ( 1.000000000000000000, 0.0000000000000000000, 0.0000000000000000000 ) ) ;
#84 = CARTESIAN_POINT ( 'NONE',  ( -23.50000000000000000, 2.877919977996280300E-015, -12.74999999999999800 ) ) ;
#85 = DIRECTION ( 'NONE',  ( 0.7071067811865507900, 8.659560562354972300E-017, -0.7071067811865441300 ) ) ;
#86 = MANIFOLD_SOLID_BREP ( 'Revolve1', #137 ) ;
#87 = CARTESIAN_POINT ( 'NONE',  ( 31.50000000000000000, 0.0000000000000000000, -8.131197846483015500 ) ) ;
#88 = VERTEX_POINT ( 'NONE', #183 ) ;
#89 = CC_DESIGN_PERSON_AND_ORGANIZATION_ASSIGNMENT ( #94, #285, ( #246 ) ) ;
#90 = CALENDAR_DATE ( 2019, 22, 4 ) ;
#91 = CARTESIAN_POINT ( 'NONE',  ( 23.50000000000000000, 0.0000000000000000000, -12.74999999999999800 ) ) ;
#92 = ORIENTED_EDGE ( 'NONE', *, *, #136, .F. ) ;
#93 = CARTESIAN_POINT ( 'NONE',  ( 0.0000000000000000000, 23.50000000000000000, -12.75000000000000000 ) ) ;
#94 = PERSON_AND_ORGANIZATION ( #210, #50 ) ;
#95 = DIRECTION ( 'NONE',  ( 0.0000000000000000000, -0.0000000000000000000, 1.000000000000000000 ) ) ;
#96 = EDGE_LOOP ( 'NONE', ( #349, #326 ) ) ;
#97 = DIRECTION ( 'NONE',  ( -0.0000000000000000000, -0.0000000000000000000, 1.000000000000000000 ) ) ;
#98 = EDGE_CURVE ( 'NONE', #295, #223, #31, .T. ) ;
#99 = AXIS2_PLACEMENT_3D ( 'NONE', #155, #162, #105 ) ;
#100 = FACE_OUTER_BOUND ( 'NONE', #146, .T. ) ;
#101 = LINE ( 'NONE', #84, #188 ) ;
#102 = CC_DESIGN_SECURITY_CLASSIFICATION ( #283, ( #246 ) ) ;
#103 = FACE_OUTER_BOUND ( 'NONE', #228, .T. ) ;
#104 = DIRECTION ( 'NONE',  ( 1.000000000000000000, 0.0000000000000000000, 0.0000000000000000000 ) ) ;
#105 = DIRECTION ( 'NONE',  ( 1.000000000000000000, 0.0000000000000000000, 0.0000000000000000000 ) ) ;
#106 = APPROVAL_STATUS ( 'not_yet_approved' ) ;
#107 = LINE ( 'NONE', #169, #166 ) ;
#108 = CIRCLE ( 'NONE', #13, 31.50000000000000000 ) ;
#109 = CALENDAR_DATE ( 2019, 22, 4 ) ;
#110 = APPLICATION_PROTOCOL_DEFINITION ( 'international standard', 'config_control_design', 1994, #259 ) ;
#111 = DIRECTION ( 'NONE',  ( -0.0000000000000000000, -0.0000000000000000000, 1.000000000000000000 ) ) ;
#112 = AXIS2_PLACEMENT_3D ( 'NONE', #200, #243, #104 ) ;
#113 = LOCAL_TIME ( 12, 54, 29.00000000000000000, #4 ) ;
#114 = CIRCLE ( 'NONE', #132, 23.50000000000000000 ) ;
#115 = AXIS2_PLACEMENT_3D ( 'NONE', #308, #206, #233 ) ;
#116 = APPROVAL_DATE_TIME ( #222, #256 ) ;
#117 = DIRECTION ( 'NONE',  ( 1.000000000000000000, 0.0000000000000000000, 0.0000000000000000000 ) ) ;
#118 = DIRECTION ( 'NONE',  ( 1.000000000000000000, 0.0000000000000000000, 0.0000000000000000000 ) ) ;
#119 = UNCERTAINTY_MEASURE_WITH_UNIT (LENGTH_MEASURE( 1.000000000000000100E-005 ), #241, 'distance_accuracy_value', 'NONE');
#120 = AXIS2_PLACEMENT_3D ( 'NONE', #301, #262, #286 ) ;
#121 = DIRECTION ( 'NONE',  ( -0.0000000000000000000, -0.0000000000000000000, 1.000000000000000000 ) ) ;
#122 = EDGE_CURVE ( 'NONE', #67, #30, #238, .T. ) ;
#123 = ADVANCED_FACE ( 'NONE', ( #160 ), #197, .T. ) ;
#124 = DIRECTION ( 'NONE',  ( 1.000000000000000000, 0.0000000000000000000, 0.0000000000000000000 ) ) ;
#125 = DIRECTION ( 'NONE',  ( 1.000000000000000000, 0.0000000000000000000, 0.0000000000000000000 ) ) ;
#126 = MECHANICAL_CONTEXT ( 'NONE', #259, 'mechanical' ) ;
#127 = AXIS2_PLACEMENT_3D ( 'NONE', #93, #95, #65 ) ;
#128 = ORIENTED_EDGE ( 'NONE', *, *, #122, .F. ) ;
#129 = ORIENTED_EDGE ( 'NONE', *, *, #289, .T. ) ;
#130 = ADVANCED_FACE ( 'NONE', ( #249 ), #281, .T. ) ;
#131 = CARTESIAN_POINT ( 'NONE',  ( -23.50000000000000000, 3.367778697655221700E-015, -12.74999999999999800 ) ) ;
#132 = AXIS2_PLACEMENT_3D ( 'NONE', #24, #212, #263 ) ;
#133 = ADVANCED_FACE ( 'NONE', ( #100, #76 ), #168, .F. ) ;
#134 = EDGE_CURVE ( 'NONE', #339, #6, #292, .T. ) ;
#135 = ADVANCED_FACE ( 'NONE', ( #22 ), #313, .T. ) ;
#136 = EDGE_CURVE ( 'NONE', #139, #191, #253, .T. ) ;
#137 = CLOSED_SHELL ( 'NONE', ( #304, #154, #130, #307, #317, #314, #123, #300, #135, #133 ) ) ;
#138 = CARTESIAN_POINT ( 'NONE',  ( 31.50000000000000000, 0.0000000000000000000, 43.26054273766887100 ) ) ;
#139 = VERTEX_POINT ( 'NONE', #251 ) ;
#140 = VECTOR ( 'NONE', #85, 1000.000000000000100 ) ;
#141 = DIRECTION ( 'NONE',  ( -0.0000000000000000000, -0.0000000000000000000, 1.000000000000000000 ) ) ;
#142 = AXIS2_PLACEMENT_3D ( 'NONE', #3, #141, #69 ) ;
#143 = VERTEX_POINT ( 'NONE', #64 ) ;
#144 = CALENDAR_DATE ( 2019, 22, 4 ) ;
#145 = CC_DESIGN_PERSON_AND_ORGANIZATION_ASSIGNMENT ( #342, #333, ( #283 ) ) ;
#146 = EDGE_LOOP ( 'NONE', ( #272, #348 ) ) ;
#147 = ORIENTED_EDGE ( 'NONE', *, *, #134, .T. ) ;
#148 = EDGE_CURVE ( 'NONE', #6, #223, #322, .T. ) ;
#149 = EDGE_CURVE ( 'NONE', #67, #295, #205, .T. ) ;
#150 = DIRECTION ( 'NONE',  ( 1.000000000000000000, 0.0000000000000000000, 0.0000000000000000000 ) ) ;
#151 = CC_DESIGN_APPROVAL ( #256, ( #246 ) ) ;
#152 = PERSON_AND_ORGANIZATION ( #210, #50 ) ;
#153 = CARTESIAN_POINT ( 'NONE',  ( -31.50000000000000000, 0.0000000000000000000, 11.25000000000000400 ) ) ;
#154 = ADVANCED_FACE ( 'NONE', ( #103 ), #9, .T. ) ;
#155 = CARTESIAN_POINT ( 'NONE',  ( 0.0000000000000000000, 0.0000000000000000000, 43.26054273766887100 ) ) ;
#156 =( NAMED_UNIT ( * ) SI_UNIT ( $, .STERADIAN. ) SOLID_ANGLE_UNIT ( ) );
#157 = EDGE_CURVE ( 'NONE', #30, #67, #235, .T. ) ;
#158 = ORIENTED_EDGE ( 'NONE', *, *, #149, .T. ) ;
#159 = DIRECTION ( 'NONE',  ( -0.0000000000000000000, -0.0000000000000000000, 1.000000000000000000 ) ) ;
#160 = FACE_OUTER_BOUND ( 'NONE', #46, .T. ) ;
#161 = PERSON_AND_ORGANIZATION_ROLE ( 'creator' ) ;
#162 = DIRECTION ( 'NONE',  ( -0.0000000000000000000, -0.0000000000000000000, 1.000000000000000000 ) ) ;
#163 = CONICAL_SURFACE ( 'NONE', #120, 23.50000000000000000, 1.047197551196600100 ) ;
#164 = AXIS2_PLACEMENT_3D ( 'NONE', #277, #320, #321 ) ;
#165 = AXIS2_PLACEMENT_3D ( 'NONE', #70, #97, #68 ) ;
#166 = VECTOR ( 'NONE', #190, 1000.000000000000000 ) ;
#167 = AXIS2_PLACEMENT_3D ( 'NONE', #7, #219, #294 ) ;
#168 = PLANE ( 'NONE',  #127 ) ;
#169 = CARTESIAN_POINT ( 'NONE',  ( -12.99999999999999600, 1.592040838891558700E-015, 43.26054273766887100 ) ) ;
#170 = AXIS2_PLACEMENT_3D ( 'NONE', #250, #218, #117 ) ;
#171 = AXIS2_PLACEMENT_3D ( 'NONE', #214, #159, #80 ) ;
#172 = COORDINATED_UNIVERSAL_TIME_OFFSET ( 5, 30, .AHEAD. ) ;
#173 = ORIENTED_EDGE ( 'NONE', *, *, #271, .F. ) ;
#174 =( NAMED_UNIT ( * ) PLANE_ANGLE_UNIT ( ) SI_UNIT ( $, .RADIAN. ) );
#175 = DESIGN_CONTEXT ( 'detailed design', #15, 'design' ) ;
#176 = LINE ( 'NONE', #287, #280 ) ;
#177 = PLANE ( 'NONE',  #115 ) ;
#178 = APPROVAL_ROLE ( '' ) ;
#179 = CARTESIAN_POINT ( 'NONE',  ( 23.50000000000000000, 0.0000000000000000000, -12.74999999999999800 ) ) ;
#180 = ORIENTED_EDGE ( 'NONE', *, *, #346, .F. ) ;
#181 = DIRECTION ( 'NONE',  ( -0.8660254037844397100, 1.060575238724908100E-016, 0.4999999999999979500 ) ) ;
#182 = DIRECTION ( 'NONE',  ( -0.0000000000000000000, -0.0000000000000000000, 1.000000000000000000 ) ) ;
#183 = CARTESIAN_POINT ( 'NONE',  ( -13.00000000000000000, 1.592040838891559100E-015, -12.74999999999999800 ) ) ;
#184 = DATE_AND_TIME ( #196, #113 ) ;
#185 = CC_DESIGN_PERSON_AND_ORGANIZATION_ASSIGNMENT ( #232, #335, ( #246 ) ) ;
#186 = ORIENTED_EDGE ( 'NONE', *, *, #17, .T. ) ;
#187 = EDGE_CURVE ( 'NONE', #217, #339, #114, .T. ) ;
#188 = VECTOR ( 'NONE', #181, 1000.000000000000100 ) ;
#189 = DIRECTION ( 'NONE',  ( -0.0000000000000000000, -0.0000000000000000000, 1.000000000000000000 ) ) ;
#190 = DIRECTION ( 'NONE',  ( -0.0000000000000000000, -0.0000000000000000000, 1.000000000000000000 ) ) ;
#191 = VERTEX_POINT ( 'NONE', #318 ) ;
#192 = DIRECTION ( 'NONE',  ( -0.0000000000000000000, -0.0000000000000000000, 1.000000000000000000 ) ) ;
#193 = EDGE_CURVE ( 'NONE', #12, #191, #72, .T. ) ;
#194 = DIRECTION ( 'NONE',  ( 1.000000000000000000, 0.0000000000000000000, 0.0000000000000000000 ) ) ;
#195 = SHAPE_DEFINITION_REPRESENTATION ( #303, #297 ) ;
#196 = CALENDAR_DATE ( 2019, 22, 4 ) ;
#197 = CONICAL_SURFACE ( 'NONE', #164, 31.50000000000000000, 0.7853981633974529400 ) ;
#198 = EDGE_CURVE ( 'NONE', #143, #6, #288, .T. ) ;
#199 = PERSON_AND_ORGANIZATION ( #210, #50 ) ;
#200 = CARTESIAN_POINT ( 'NONE',  ( 0.0000000000000000000, 0.0000000000000000000, 43.26054273766887100 ) ) ;
#201 = FACE_BOUND ( 'NONE', #27, .T. ) ;
#202 = DIRECTION ( 'NONE',  ( 1.000000000000000000, 0.0000000000000000000, 0.0000000000000000000 ) ) ;
#203 = LOCAL_TIME ( 12, 54, 29.00000000000000000, #172 ) ;
#204 = CARTESIAN_POINT ( 'NONE',  ( 0.0000000000000000000, 0.0000000000000000000, 12.74999999999999100 ) ) ;
#205 = LINE ( 'NONE', #315, #290 ) ;
#206 = DIRECTION ( 'NONE',  ( 0.0000000000000000000, 0.0000000000000000000, -1.000000000000000000 ) ) ;
#207 = APPROVAL_STATUS ( 'not_yet_approved' ) ;
#208 = FACE_OUTER_BOUND ( 'NONE', #340, .T. ) ;
#209 = ORIENTED_EDGE ( 'NONE', *, *, #337, .T. ) ;
#210 = PERSON ( 'UNSPECIFIED', 'UNSPECIFIED', 'UNSPECIFIED', ('UNSPECIFIED'), ('UNSPECIFIED'), ('UNSPECIFIED') ) ;
#211 = ORIENTED_EDGE ( 'NONE', *, *, #44, .T. ) ;
#212 = DIRECTION ( 'NONE',  ( -0.0000000000000000000, -0.0000000000000000000, 1.000000000000000000 ) ) ;
#213 = EDGE_LOOP ( 'NONE', ( #58, #273, #147, #51 ) ) ;
#214 = CARTESIAN_POINT ( 'NONE',  ( 0.0000000000000000000, 0.0000000000000000000, 43.26054273766887100 ) ) ;
#215 = ORIENTED_EDGE ( 'NONE', *, *, #98, .F. ) ;
#216 = APPROVAL_PERSON_ORGANIZATION ( #278, #256, #178 ) ;
#217 = VERTEX_POINT ( 'NONE', #131 ) ;
#218 = DIRECTION ( 'NONE',  ( -0.0000000000000000000, -0.0000000000000000000, 1.000000000000000000 ) ) ;
#219 = DIRECTION ( 'NONE',  ( 0.0000000000000000000, 0.0000000000000000000, -1.000000000000000000 ) ) ;
#220 = VECTOR ( 'NONE', #16, 1000.000000000000000 ) ;
#221 = APPROVAL ( #54, 'UNSPECIFIED' ) ;
#222 = DATE_AND_TIME ( #109, #203 ) ;
#223 = VERTEX_POINT ( 'NONE', #299 ) ;
#224 = AXIS2_PLACEMENT_3D ( 'NONE', #33, #36, #347 ) ;
#225 = CIRCLE ( 'NONE', #38, 23.50000000000000000 ) ;
#226 = ORIENTED_EDGE ( 'NONE', *, *, #346, .T. ) ;
#227 = AXIS2_PLACEMENT_3D ( 'NONE', #52, #338, #124 ) ;
#228 = EDGE_LOOP ( 'NONE', ( #319, #129, #180, #244 ) ) ;
#229 = CC_DESIGN_APPROVAL ( #221, ( #283 ) ) ;
#230 = AXIS2_PLACEMENT_3D ( 'NONE', #309, #240, #150 ) ;
#231 = CARTESIAN_POINT ( 'NONE',  ( 12.99999999999999600, 0.0000000000000000000, 43.26054273766887100 ) ) ;
#232 = PERSON_AND_ORGANIZATION ( #210, #50 ) ;
#233 = DIRECTION ( 'NONE',  ( -1.000000000000000000, 0.0000000000000000000, -0.0000000000000000000 ) ) ;
#234 = PERSON_AND_ORGANIZATION ( #210, #50 ) ;
#235 = CIRCLE ( 'NONE', #73, 30.00000000000000000 ) ;
#236 = CARTESIAN_POINT ( 'NONE',  ( 0.0000000000000000000, 0.0000000000000000000, 11.25000000000000400 ) ) ;
#237 = PRODUCT_DEFINITION ( 'UNKNOWN', '', #246, #175 ) ;
#238 = CIRCLE ( 'NONE', #165, 30.00000000000000000 ) ;
#239 = SECURITY_CLASSIFICATION_LEVEL ( 'unclassified' ) ;
#240 = DIRECTION ( 'NONE',  ( -0.0000000000000000000, -0.0000000000000000000, 1.000000000000000000 ) ) ;
#241 =( LENGTH_UNIT ( ) NAMED_UNIT ( * ) SI_UNIT ( .MILLI., .METRE. ) );
#242 = CIRCLE ( 'NONE', #330, 12.99999999999999500 ) ;
#243 = DIRECTION ( 'NONE',  ( -0.0000000000000000000, -0.0000000000000000000, 1.000000000000000000 ) ) ;
#244 = ORIENTED_EDGE ( 'NONE', *, *, #148, .F. ) ;
#245 = ORIENTED_EDGE ( 'NONE', *, *, #148, .T. ) ;
#246 = PRODUCT_DEFINITION_FORMATION_WITH_SPECIFIED_SOURCE ( 'ANY', '', #268, .NOT_KNOWN. ) ;
#247 = DIRECTION ( 'NONE',  ( 1.000000000000000000, 0.0000000000000000000, 0.0000000000000000000 ) ) ;
#248 =( GEOMETRIC_REPRESENTATION_CONTEXT ( 3 ) GLOBAL_UNCERTAINTY_ASSIGNED_CONTEXT ( ( #119 ) ) GLOBAL_UNIT_ASSIGNED_CONTEXT ( ( #241, #174, #156 ) ) REPRESENTATION_CONTEXT ( 'NONE', 'WORKASPACE' ) );
#249 = FACE_OUTER_BOUND ( 'NONE', #279, .T. ) ;
#250 = CARTESIAN_POINT ( 'NONE',  ( 0.0000000000000000000, 0.0000000000000000000, -12.74999999999999800 ) ) ;
#251 = CARTESIAN_POINT ( 'NONE',  ( -12.99999999999999500, 1.592040838891558700E-015, 12.74999999999999800 ) ) ;
#252 = CARTESIAN_POINT ( 'NONE',  ( 0.0000000000000000000, 0.0000000000000000000, 43.26054273766887100 ) ) ;
#253 = CIRCLE ( 'NONE', #224, 12.99999999999999500 ) ;
#254 = ORIENTED_EDGE ( 'NONE', *, *, #23, .F. ) ;
#255 = CALENDAR_DATE ( 2019, 22, 4 ) ;
#256 = APPROVAL ( #207, 'UNSPECIFIED' ) ;
#257 = ORIENTED_EDGE ( 'NONE', *, *, #136, .T. ) ;
#258 = CARTESIAN_POINT ( 'NONE',  ( 0.0000000000000000000, 0.0000000000000000000, -12.74999999999999800 ) ) ;
#259 = APPLICATION_CONTEXT ( 'configuration controlled 3d designs of mechanical parts and assemblies' ) ;
#260 = DATE_AND_TIME ( #255, #325 ) ;
#261 = APPROVAL_ROLE ( '' ) ;
#262 = DIRECTION ( 'NONE',  ( -0.0000000000000000000, -0.0000000000000000000, 1.000000000000000000 ) ) ;
#263 = DIRECTION ( 'NONE',  ( 1.000000000000000000, 0.0000000000000000000, 0.0000000000000000000 ) ) ;
#264 = ORIENTED_EDGE ( 'NONE', *, *, #198, .T. ) ;
#265 = ORIENTED_EDGE ( 'NONE', *, *, #122, .T. ) ;
#266 = FACE_OUTER_BOUND ( 'NONE', #75, .T. ) ;
#267 = PERSON_AND_ORGANIZATION ( #210, #50 ) ;
#268 = PRODUCT ( 'UM ER 40 SLOTTED', 'UM ER 40 SLOTTED', '', ( #126 ) ) ;
#269 = CIRCLE ( 'NONE', #43, 12.99999999999999800 ) ;
#270 = DIRECTION ( 'NONE',  ( 0.8660254037844397100, 0.0000000000000000000, 0.4999999999999979500 ) ) ;
#271 = EDGE_CURVE ( 'NONE', #88, #12, #269, .T. ) ;
#272 = ORIENTED_EDGE ( 'NONE', *, *, #17, .F. ) ;
#273 = ORIENTED_EDGE ( 'NONE', *, *, #187, .T. ) ;
#274 = DIRECTION ( 'NONE',  ( -0.0000000000000000000, -0.0000000000000000000, 1.000000000000000000 ) ) ;
#275 = VECTOR ( 'NONE', #270, 1000.000000000000100 ) ;
#276 = EDGE_CURVE ( 'NONE', #12, #88, #40, .T. ) ;
#277 = CARTESIAN_POINT ( 'NONE',  ( 0.0000000000000000000, 0.0000000000000000000, 11.25000000000000400 ) ) ;
#278 = PERSON_AND_ORGANIZATION ( #210, #50 ) ;
#279 = EDGE_LOOP ( 'NONE', ( #39, #20, #226, #71 ) ) ;
#280 = VECTOR ( 'NONE', #111, 1000.000000000000000 ) ;
#281 = CONICAL_SURFACE ( 'NONE', #167, 31.50000000000000000, 0.7853981633974529400 ) ;
#282 = APPROVAL_DATE_TIME ( #260, #221 ) ;
#283 = SECURITY_CLASSIFICATION ( '', '', #239 ) ;
#284 = ORIENTED_EDGE ( 'NONE', *, *, #193, .T. ) ;
#285 = PERSON_AND_ORGANIZATION_ROLE ( 'design_supplier' ) ;
#286 = DIRECTION ( 'NONE',  ( 1.000000000000000000, 0.0000000000000000000, 0.0000000000000000000 ) ) ;
#287 = CARTESIAN_POINT ( 'NONE',  ( -31.50000000000000000, 3.857637417314162700E-015, 43.26054273766887100 ) ) ;
#288 = CIRCLE ( 'NONE', #230, 31.50000000000000000 ) ;
#289 = EDGE_CURVE ( 'NONE', #143, #295, #176, .T. ) ;
#290 = VECTOR ( 'NONE', #293, 1000.000000000000100 ) ;
#291 = ORIENTED_EDGE ( 'NONE', *, *, #343, .T. ) ;
#292 = LINE ( 'NONE', #91, #275 ) ;
#293 = DIRECTION ( 'NONE',  ( -0.7071067811865507900, 0.0000000000000000000, -0.7071067811865441300 ) ) ;
#294 = DIRECTION ( 'NONE',  ( -1.000000000000000000, 0.0000000000000000000, 0.0000000000000000000 ) ) ;
#295 = VERTEX_POINT ( 'NONE', #153 ) ;
#296 = DIRECTION ( 'NONE',  ( -0.0000000000000000000, -0.0000000000000000000, 1.000000000000000000 ) ) ;
#297 = ADVANCED_BREP_SHAPE_REPRESENTATION ( 'UM ER 40 SLOTTED', ( #86, #227 ), #248 ) ;
#298 = FACE_OUTER_BOUND ( 'NONE', #2, .T. ) ;
#299 = CARTESIAN_POINT ( 'NONE',  ( 31.50000000000000000, 3.857637417314162700E-015, 11.25000000000000400 ) ) ;
#300 = ADVANCED_FACE ( 'NONE', ( #298 ), #63, .T. ) ;
#301 = CARTESIAN_POINT ( 'NONE',  ( 0.0000000000000000000, 0.0000000000000000000, -12.74999999999999800 ) ) ;
#302 = DIRECTION ( 'NONE',  ( 1.000000000000000000, 0.0000000000000000000, 0.0000000000000000000 ) ) ;
#303 = PRODUCT_DEFINITION_SHAPE ( 'NONE', 'NONE',  #237 ) ;
#304 = ADVANCED_FACE ( 'NONE', ( #266 ), #163, .T. ) ;
#305 = LINE ( 'NONE', #28, #140 ) ;
#306 = COORDINATED_UNIVERSAL_TIME_OFFSET ( 5, 30, .AHEAD. ) ;
#307 = ADVANCED_FACE ( 'NONE', ( #8 ), #25, .F. ) ;
#308 = CARTESIAN_POINT ( 'NONE',  ( 0.0000000000000000000, 12.99999999999999500, 12.74999999999999500 ) ) ;
#309 = CARTESIAN_POINT ( 'NONE',  ( 0.0000000000000000000, 0.0000000000000000000, -8.131197846483015500 ) ) ;
#310 = ORIENTED_EDGE ( 'NONE', *, *, #289, .F. ) ;
#311 = EDGE_LOOP ( 'NONE', ( #173, #211, #257, #26 ) ) ;
#312 = CC_DESIGN_APPROVAL ( #53, ( #237 ) ) ;
#313 = CONICAL_SURFACE ( 'NONE', #170, 23.50000000000000000, 1.047197551196600100 ) ;
#314 = ADVANCED_FACE ( 'NONE', ( #201, #316 ), #177, .F. ) ;
#315 = CARTESIAN_POINT ( 'NONE',  ( -31.50000000000000000, 0.0000000000000000000, 11.25000000000000400 ) ) ;
#316 = FACE_OUTER_BOUND ( 'NONE', #11, .T. ) ;
#317 = ADVANCED_FACE ( 'NONE', ( #208 ), #35, .F. ) ;
#318 = CARTESIAN_POINT ( 'NONE',  ( 12.99999999999999500, 0.0000000000000000000, 12.74999999999999800 ) ) ;
#319 = ORIENTED_EDGE ( 'NONE', *, *, #47, .T. ) ;
#320 = DIRECTION ( 'NONE',  ( 0.0000000000000000000, 0.0000000000000000000, -1.000000000000000000 ) ) ;
#321 = DIRECTION ( 'NONE',  ( -1.000000000000000000, 0.0000000000000000000, 0.0000000000000000000 ) ) ;
#322 = LINE ( 'NONE', #138, #42 ) ;
#323 = CC_DESIGN_PERSON_AND_ORGANIZATION_ASSIGNMENT ( #267, #55, ( #268 ) ) ;
#324 = DATE_AND_TIME ( #90, #78 ) ;
#325 = LOCAL_TIME ( 12, 54, 29.00000000000000000, #48 ) ;
#326 = ORIENTED_EDGE ( 'NONE', *, *, #271, .T. ) ;
#327 = ORIENTED_EDGE ( 'NONE', *, *, #134, .F. ) ;
#328 = ORIENTED_EDGE ( 'NONE', *, *, #47, .F. ) ;
#329 = CIRCLE ( 'NONE', #49, 31.50000000000000000 ) ;
#330 = AXIS2_PLACEMENT_3D ( 'NONE', #331, #79, #202 ) ;
#331 = CARTESIAN_POINT ( 'NONE',  ( 0.0000000000000000000, 0.0000000000000000000, 12.74999999999999800 ) ) ;
#332 = ORIENTED_EDGE ( 'NONE', *, *, #98, .T. ) ;
#333 = PERSON_AND_ORGANIZATION_ROLE ( 'classification_officer' ) ;
#334 = DATE_TIME_ROLE ( 'creation_date' ) ;
#335 = PERSON_AND_ORGANIZATION_ROLE ( 'creator' ) ;
#336 = DIRECTION ( 'NONE',  ( -0.0000000000000000000, -0.0000000000000000000, 1.000000000000000000 ) ) ;
#337 = EDGE_CURVE ( 'NONE', #217, #143, #101, .T. ) ;
#338 = DIRECTION ( 'NONE',  ( 0.0000000000000000000, 0.0000000000000000000, 1.000000000000000000 ) ) ;
#339 = VERTEX_POINT ( 'NONE', #179 ) ;
#340 = EDGE_LOOP ( 'NONE', ( #19, #45, #284, #291 ) ) ;
#341 = ORIENTED_EDGE ( 'NONE', *, *, #343, .F. ) ;
#342 = PERSON_AND_ORGANIZATION ( #210, #50 ) ;
#343 = EDGE_CURVE ( 'NONE', #191, #139, #242, .T. ) ;
#344 = DATE_AND_TIME ( #144, #32 ) ;
#345 = APPROVAL_PERSON_ORGANIZATION ( #199, #221, #261 ) ;
#346 = EDGE_CURVE ( 'NONE', #223, #295, #108, .T. ) ;
#347 = DIRECTION ( 'NONE',  ( 1.000000000000000000, 0.0000000000000000000, 0.0000000000000000000 ) ) ;
#348 = ORIENTED_EDGE ( 'NONE', *, *, #187, .F. ) ;
#349 = ORIENTED_EDGE ( 'NONE', *, *, #276, .T. ) ;
ENDSEC;
END-ISO-10303-21;
