ISO-10303-21;
HEADER;
FILE_DESCRIPTION (( 'STEP AP203' ),
    '1' );
FILE_NAME ('TAP COLLET ER 32G  6.0 X 4.9.STEP',
    '2019-04-09T10:52:45',
    ( '' ),
    ( '' ),
    'SwSTEP 2.0',
    'SolidWorks 2014',
    '' );
FILE_SCHEMA (( 'CONFIG_CONTROL_DESIGN' ));
ENDSEC;

DATA;
#1 = ADVANCED_BREP_SHAPE_REPRESENTATION ( 'TAP COLLET ER 32G  6.0 X 4.9', ( #238, #387 ), #161 ) ;
#2 = DIRECTION ( 'NONE',  ( 0.1391731009600586900, 1.704378926181473100E-017, -0.9902680687415712500 ) ) ;
#3 = ADVANCED_FACE ( 'NONE', ( #77 ), #249, .F. ) ;
#4 = CIRCLE ( 'NONE', #124, 16.50032537154048700 ) ;
#5 = CIRCLE ( 'NONE', #334, 0.4000000000000045200 ) ;
#6 = ADVANCED_FACE ( 'NONE', ( #104 ), #339, .T. ) ;
#7 = DIRECTION ( 'NONE',  ( -0.0000000000000000000, -0.0000000000000000000, 1.000000000000000000 ) ) ;
#8 = DIRECTION ( 'NONE',  ( 0.0000000000000000000, 0.0000000000000000000, -1.000000000000000000 ) ) ;
#9 = DIRECTION ( 'NONE',  ( 1.000000000000000000, 0.0000000000000000000, 0.0000000000000000000 ) ) ;
#10 = ADVANCED_FACE ( 'NONE', ( #363 ), #351, .T. ) ;
#11 = EDGE_LOOP ( 'NONE', ( #85, #14, #122, #374 ) ) ;
#12 = DIRECTION ( 'NONE',  ( 1.000000000000000000, 0.0000000000000000000, 0.0000000000000000000 ) ) ;
#13 = PLANE ( 'NONE',  #216 ) ;
#14 = ORIENTED_EDGE ( 'NONE', *, *, #120, .T. ) ;
#15 = VECTOR ( 'NONE', #131, 1000.000000000000000 ) ;
#16 = AXIS2_PLACEMENT_3D ( 'NONE', #41, #17, #255 ) ;
#17 = DIRECTION ( 'NONE',  ( -0.0000000000000000000, -0.0000000000000000000, 1.000000000000000000 ) ) ;
#18 = ADVANCED_FACE ( 'NONE', ( #60 ), #241, .T. ) ;
#19 = SECURITY_CLASSIFICATION ( '', '', #209 ) ;
#20 = ORIENTED_EDGE ( 'NONE', *, *, #148, .T. ) ;
#21 = ORIENTED_EDGE ( 'NONE', *, *, #281, .T. ) ;
#22 = FACE_OUTER_BOUND ( 'NONE', #135, .T. ) ;
#23 = AXIS2_PLACEMENT_3D ( 'NONE', #43, #219, #164 ) ;
#24 = EDGE_CURVE ( 'NONE', #113, #263, #151, .T. ) ;
#25 = VERTEX_POINT ( 'NONE', #68 ) ;
#26 = LOCAL_TIME ( 16, 22, 45.00000000000000000, #111 ) ;
#27 = CARTESIAN_POINT ( 'NONE',  ( 0.0000000000000000000, 0.0000000000000000000, 5.500000000000005300 ) ) ;
#28 = DIRECTION ( 'NONE',  ( 0.4999999999999947300, 0.0000000000000000000, 0.8660254037844418200 ) ) ;
#29 = ADVANCED_FACE ( 'NONE', ( #276, #99 ), #33, .F. ) ;
#30 = DIRECTION ( 'NONE',  ( 1.000000000000000000, 0.0000000000000000000, 0.0000000000000000000 ) ) ;
#31 = DIRECTION ( 'NONE',  ( 0.0000000000000000000, 0.0000000000000000000, -1.000000000000000000 ) ) ;
#32 = AXIS2_PLACEMENT_3D ( 'NONE', #158, #7, #213 ) ;
#33 = PLANE ( 'NONE',  #377 ) ;
#34 = ORIENTED_EDGE ( 'NONE', *, *, #297, .T. ) ;
#35 = DIRECTION ( 'NONE',  ( -0.0000000000000000000, -0.0000000000000000000, 1.000000000000000000 ) ) ;
#36 = DIRECTION ( 'NONE',  ( 0.0000000000000000000, -0.0000000000000000000, 1.000000000000000000 ) ) ;
#37 = CIRCLE ( 'NONE', #23, 11.80989888411031400 ) ;
#38 = EDGE_LOOP ( 'NONE', ( #298, #117, #80, #47 ) ) ;
#39 = DIRECTION ( 'NONE',  ( 1.000000000000000000, 0.0000000000000000000, 0.0000000000000000000 ) ) ;
#40 = CALENDAR_DATE ( 2019, 9, 4 ) ;
#41 = CARTESIAN_POINT ( 'NONE',  ( 0.0000000000000000000, 0.0000000000000000000, 5.500000000000005300 ) ) ;
#42 = ORGANIZATION ( 'UNSPECIFIED', 'UNSPECIFIED', '' ) ;
#43 = CARTESIAN_POINT ( 'NONE',  ( 0.0000000000000000000, 0.0000000000000000000, 40.00000000000000700 ) ) ;
#44 = ADVANCED_FACE ( 'NONE', ( #267, #285 ), #181, .F. ) ;
#45 = DIRECTION ( 'NONE',  ( -0.0000000000000000000, -0.0000000000000000000, 1.000000000000000000 ) ) ;
#46 = PERSON_AND_ORGANIZATION ( #284, #42 ) ;
#47 = ORIENTED_EDGE ( 'NONE', *, *, #290, .F. ) ;
#48 = AXIS2_PLACEMENT_3D ( 'NONE', #309, #210, #30 ) ;
#49 = EDGE_LOOP ( 'NONE', ( #192, #21, #70, #102 ) ) ;
#50 = FACE_OUTER_BOUND ( 'NONE', #335, .T. ) ;
#51 = PRODUCT_RELATED_PRODUCT_CATEGORY ( 'detail', '', ( #222 ) ) ;
#52 = EDGE_CURVE ( 'NONE', #221, #160, #5, .T. ) ;
#53 = CARTESIAN_POINT ( 'NONE',  ( 0.0000000000000000000, 0.0000000000000000000, 9.099999999999997900 ) ) ;
#54 = DIRECTION ( 'NONE',  ( -0.0000000000000000000, -0.0000000000000000000, 1.000000000000000000 ) ) ;
#55 = CC_DESIGN_PERSON_AND_ORGANIZATION_ASSIGNMENT ( #183, #274, ( #19 ) ) ;
#56 = APPROVAL_STATUS ( 'not_yet_approved' ) ;
#57 = APPROVAL_PERSON_ORGANIZATION ( #380, #177, #133 ) ;
#58 = ORIENTED_EDGE ( 'NONE', *, *, #383, .T. ) ;
#59 = LOCAL_TIME ( 16, 22, 45.00000000000000000, #118 ) ;
#60 = FACE_OUTER_BOUND ( 'NONE', #11, .T. ) ;
#61 = CARTESIAN_POINT ( 'NONE',  ( -16.50032537154048700, 0.0000000000000000000, 9.099999999999997900 ) ) ;
#62 = DIRECTION ( 'NONE',  ( -0.0000000000000000000, -0.0000000000000000000, 1.000000000000000000 ) ) ;
#63 = DIRECTION ( 'NONE',  ( -0.4999999999999947300, 6.123233995736700700E-017, 0.8660254037844418200 ) ) ;
#64 = DIRECTION ( 'NONE',  ( 1.000000000000000000, 0.0000000000000000000, 0.0000000000000000000 ) ) ;
#65 = EDGE_LOOP ( 'NONE', ( #136, #321 ) ) ;
#66 = DIRECTION ( 'NONE',  ( -1.000000000000000000, 0.0000000000000000000, -0.0000000000000000000 ) ) ;
#67 = DIRECTION ( 'NONE',  ( 1.224646799147353200E-016, 1.000000000000000000, 0.0000000000000000000 ) ) ;
#68 = CARTESIAN_POINT ( 'NONE',  ( 16.50032537154048700, 2.020707065114692300E-015, 9.099999999999997900 ) ) ;
#69 = CIRCLE ( 'NONE', #184, 14.60000000000000000 ) ;
#70 = ORIENTED_EDGE ( 'NONE', *, *, #260, .T. ) ;
#71 = APPROVAL ( #56, 'UNSPECIFIED' ) ;
#72 = FACE_OUTER_BOUND ( 'NONE', #237, .T. ) ;
#73 = CARTESIAN_POINT ( 'NONE',  ( 12.20600611160694300, 1.757755848304969800E-015, 39.65566924038402900 ) ) ;
#74 = EDGE_LOOP ( 'NONE', ( #246, #382 ) ) ;
#75 = DIRECTION ( 'NONE',  ( 1.000000000000000000, 0.0000000000000000000, 0.0000000000000000000 ) ) ;
#76 = CARTESIAN_POINT ( 'NONE',  ( 0.0000000000000000000, 0.0000000000000000000, 39.60000000000000100 ) ) ;
#77 = FACE_OUTER_BOUND ( 'NONE', #201, .T. ) ;
#78 = DIRECTION ( 'NONE',  ( -0.0000000000000000000, -0.0000000000000000000, 1.000000000000000000 ) ) ;
#79 = ORIENTED_EDGE ( 'NONE', *, *, #92, .T. ) ;
#80 = ORIENTED_EDGE ( 'NONE', *, *, #231, .F. ) ;
#81 = DIRECTION ( 'NONE',  ( 1.000000000000000000, 0.0000000000000000000, 0.0000000000000000000 ) ) ;
#82 = DATE_AND_TIME ( #318, #252 ) ;
#83 = DIRECTION ( 'NONE',  ( -0.0000000000000000000, -0.0000000000000000000, 1.000000000000000000 ) ) ;
#84 = PERSON_AND_ORGANIZATION_ROLE ( 'creator' ) ;
#85 = ORIENTED_EDGE ( 'NONE', *, *, #319, .T. ) ;
#86 = AXIS2_PLACEMENT_3D ( 'NONE', #333, #125, #12 ) ;
#87 = CARTESIAN_POINT ( 'NONE',  ( 0.0000000000000000000, 0.0000000000000000000, 9.099999999999997900 ) ) ;
#88 = PERSON_AND_ORGANIZATION_ROLE ( 'creator' ) ;
#89 = CARTESIAN_POINT ( 'NONE',  ( -16.50032537154048700, 0.0000000000000000000, 9.099999999999997900 ) ) ;
#90 = LINE ( 'NONE', #242, #266 ) ;
#91 = CC_DESIGN_APPROVAL ( #177, ( #203 ) ) ;
#92 = EDGE_CURVE ( 'NONE', #263, #160, #379, .T. ) ;
#93 = DIRECTION ( 'NONE',  ( 1.000000000000000000, 0.0000000000000000000, 0.0000000000000000000 ) ) ;
#94 = CARTESIAN_POINT ( 'NONE',  ( -11.80989888411031400, 1.446295486667959300E-015, 39.60000000000000100 ) ) ;
#95 = CARTESIAN_POINT ( 'NONE',  ( 0.0000000000000000000, 0.0000000000000000000, 101.8074564848000400 ) ) ;
#96 = ADVANCED_FACE ( 'NONE', ( #169 ), #98, .T. ) ;
#97 = CC_DESIGN_SECURITY_CLASSIFICATION ( #19, ( #203 ) ) ;
#98 = TOROIDAL_SURFACE ( 'NONE', #48, 11.80989888411031400, 0.4000000000000026900 ) ;
#99 = FACE_OUTER_BOUND ( 'NONE', #74, .T. ) ;
#100 = DIRECTION ( 'NONE',  ( -0.0000000000000000000, -0.0000000000000000000, 1.000000000000000000 ) ) ;
#101 = PRODUCT_DEFINITION_SHAPE ( 'NONE', 'NONE',  #300 ) ;
#102 = ORIENTED_EDGE ( 'NONE', *, *, #279, .F. ) ;
#103 = CIRCLE ( 'NONE', #134, 14.60000000000000000 ) ;
#104 = FACE_OUTER_BOUND ( 'NONE', #269, .T. ) ;
#105 = CC_DESIGN_APPROVAL ( #108, ( #19 ) ) ;
#106 = CARTESIAN_POINT ( 'NONE',  ( 0.0000000000000000000, 0.0000000000000000000, 5.500000000000005300 ) ) ;
#107 = DIRECTION ( 'NONE',  ( 1.000000000000000000, 0.0000000000000000000, 0.0000000000000000000 ) ) ;
#108 = APPROVAL ( #196, 'UNSPECIFIED' ) ;
#109 = VERTEX_POINT ( 'NONE', #179 ) ;
#110 = DIRECTION ( 'NONE',  ( 1.000000000000000000, 0.0000000000000000000, 0.0000000000000000000 ) ) ;
#111 = COORDINATED_UNIVERSAL_TIME_OFFSET ( 5, 30, .AHEAD. ) ;
#112 = FACE_OUTER_BOUND ( 'NONE', #215, .T. ) ;
#113 = VERTEX_POINT ( 'NONE', #354 ) ;
#114 = CC_DESIGN_APPROVAL ( #71, ( #300 ) ) ;
#115 = CARTESIAN_POINT ( 'NONE',  ( -16.50000000000000000, 2.020667218593133100E-015, 5.500000000000005300 ) ) ;
#116 = DIRECTION ( 'NONE',  ( -0.0000000000000000000, -0.0000000000000000000, 1.000000000000000000 ) ) ;
#117 = ORIENTED_EDGE ( 'NONE', *, *, #119, .T. ) ;
#118 = COORDINATED_UNIVERSAL_TIME_OFFSET ( 5, 30, .AHEAD. ) ;
#119 = EDGE_CURVE ( 'NONE', #308, #358, #277, .T. ) ;
#120 = EDGE_CURVE ( 'NONE', #369, #342, #90, .T. ) ;
#121 = DIRECTION ( 'NONE',  ( -1.000000000000000000, 1.224646799147352500E-016, 0.0000000000000000000 ) ) ;
#122 = ORIENTED_EDGE ( 'NONE', *, *, #385, .F. ) ;
#123 = PERSON_AND_ORGANIZATION ( #284, #42 ) ;
#124 = AXIS2_PLACEMENT_3D ( 'NONE', #268, #141, #381 ) ;
#125 = DIRECTION ( 'NONE',  ( -0.0000000000000000000, -0.0000000000000000000, 1.000000000000000000 ) ) ;
#126 = CONICAL_SURFACE ( 'NONE', #190, 16.50032537154048700, 0.1396263401595395900 ) ;
#127 = CARTESIAN_POINT ( 'NONE',  ( 14.60000000000000000, 0.0000000000000000000, 9.099999999999997900 ) ) ;
#128 = LOCAL_TIME ( 16, 22, 45.00000000000000000, #154 ) ;
#129 = VERTEX_POINT ( 'NONE', #386 ) ;
#130 = ADVANCED_FACE ( 'NONE', ( #139 ), #317, .T. ) ;
#131 = DIRECTION ( 'NONE',  ( -0.1391731009600586900, 0.0000000000000000000, -0.9902680687415712500 ) ) ;
#132 = LINE ( 'NONE', #299, #137 ) ;
#133 = APPROVAL_ROLE ( '' ) ;
#134 = AXIS2_PLACEMENT_3D ( 'NONE', #106, #214, #247 ) ;
#135 = EDGE_LOOP ( 'NONE', ( #234, #58, #165, #292 ) ) ;
#136 = ORIENTED_EDGE ( 'NONE', *, *, #385, .T. ) ;
#137 = VECTOR ( 'NONE', #28, 999.9999999999998900 ) ;
#138 = CARTESIAN_POINT ( 'NONE',  ( 0.0000000000000000000, 0.0000000000000000000, 9.099999999999997900 ) ) ;
#139 = FACE_OUTER_BOUND ( 'NONE', #49, .T. ) ;
#140 =( LENGTH_UNIT ( ) NAMED_UNIT ( * ) SI_UNIT ( .MILLI., .METRE. ) );
#141 = DIRECTION ( 'NONE',  ( -0.0000000000000000000, -0.0000000000000000000, 1.000000000000000000 ) ) ;
#142 = ORIENTED_EDGE ( 'NONE', *, *, #319, .F. ) ;
#143 = APPROVAL_DATE_TIME ( #359, #71 ) ;
#144 = AXIS2_PLACEMENT_3D ( 'NONE', #138, #78, #224 ) ;
#145 = CARTESIAN_POINT ( 'NONE',  ( -11.80989888411031400, 1.470550059081603400E-015, 40.00000000000000700 ) ) ;
#146 = DIRECTION ( 'NONE',  ( 0.0000000000000000000, 0.0000000000000000000, -1.000000000000000000 ) ) ;
#147 = PERSON_AND_ORGANIZATION_ROLE ( 'design_owner' ) ;
#148 = EDGE_CURVE ( 'NONE', #283, #25, #168, .T. ) ;
#149 = DATE_TIME_ROLE ( 'creation_date' ) ;
#150 = CIRCLE ( 'NONE', #16, 16.50000000000000000 ) ;
#151 = CIRCLE ( 'NONE', #307, 0.4000000000000028000 ) ;
#152 = DIRECTION ( 'NONE',  ( 0.0000000000000000000, -1.000000000000000000, 0.0000000000000000000 ) ) ;
#153 = DESIGN_CONTEXT ( 'detailed design', #235, 'design' ) ;
#154 = COORDINATED_UNIVERSAL_TIME_OFFSET ( 5, 30, .AHEAD. ) ;
#155 = VERTEX_POINT ( 'NONE', #236 ) ;
#156 = CARTESIAN_POINT ( 'NONE',  ( 11.80989888411031400, 0.0000000000000000000, 39.60000000000000100 ) ) ;
#157 = CC_DESIGN_DATE_AND_TIME_ASSIGNMENT ( #82, #384, ( #19 ) ) ;
#158 = CARTESIAN_POINT ( 'NONE',  ( 0.0000000000000000000, 0.0000000000000000000, 0.0000000000000000000 ) ) ;
#159 = DIRECTION ( 'NONE',  ( 1.000000000000000000, 0.0000000000000000000, 0.0000000000000000000 ) ) ;
#160 = VERTEX_POINT ( 'NONE', #329 ) ;
#161 =( GEOMETRIC_REPRESENTATION_CONTEXT ( 3 ) GLOBAL_UNCERTAINTY_ASSIGNED_CONTEXT ( ( #323 ) ) GLOBAL_UNIT_ASSIGNED_CONTEXT ( ( #140, #288, #230 ) ) REPRESENTATION_CONTEXT ( 'NONE', 'WORKASPACE' ) );
#162 = CIRCLE ( 'NONE', #172, 12.20600611160694300 ) ;
#163 = DATE_AND_TIME ( #291, #128 ) ;
#164 = DIRECTION ( 'NONE',  ( 1.000000000000000000, 0.0000000000000000000, 0.0000000000000000000 ) ) ;
#165 = ORIENTED_EDGE ( 'NONE', *, *, #290, .T. ) ;
#166 = CIRCLE ( 'NONE', #371, 14.60000000000000000 ) ;
#167 = AXIS2_PLACEMENT_3D ( 'NONE', #87, #294, #110 ) ;
#168 = CIRCLE ( 'NONE', #167, 16.50032537154048700 ) ;
#169 = FACE_OUTER_BOUND ( 'NONE', #175, .T. ) ;
#170 = DATE_AND_TIME ( #40, #59 ) ;
#171 = CARTESIAN_POINT ( 'NONE',  ( 0.0000000000000000000, 11.80989888411031400, 40.00000000000000700 ) ) ;
#172 = AXIS2_PLACEMENT_3D ( 'NONE', #187, #45, #75 ) ;
#173 = CARTESIAN_POINT ( 'NONE',  ( 0.0000000000000000000, 0.0000000000000000000, 0.0000000000000000000 ) ) ;
#174 = APPLICATION_PROTOCOL_DEFINITION ( 'international standard', 'config_control_design', 1994, #232 ) ;
#175 = EDGE_LOOP ( 'NONE', ( #208, #198, #211, #180 ) ) ;
#176 = APPROVAL_ROLE ( '' ) ;
#177 = APPROVAL ( #225, 'UNSPECIFIED' ) ;
#178 = CARTESIAN_POINT ( 'NONE',  ( 0.0000000000000000000, 0.0000000000000000000, 9.099999999999997900 ) ) ;
#179 = CARTESIAN_POINT ( 'NONE',  ( 16.50000000000000000, 0.0000000000000000000, 5.500000000000005300 ) ) ;
#180 = ORIENTED_EDGE ( 'NONE', *, *, #52, .F. ) ;
#181 = PLANE ( 'NONE',  #278 ) ;
#182 = CARTESIAN_POINT ( 'NONE',  ( 0.0000000000000000000, 16.50000000000000000, 5.500000000000002700 ) ) ;
#183 = PERSON_AND_ORGANIZATION ( #284, #42 ) ;
#184 = AXIS2_PLACEMENT_3D ( 'NONE', #53, #83, #107 ) ;
#185 = ORIENTED_EDGE ( 'NONE', *, *, #383, .F. ) ;
#186 = CARTESIAN_POINT ( 'NONE',  ( 0.0000000000000000000, 0.0000000000000000000, 0.0000000000000000000 ) ) ;
#187 = CARTESIAN_POINT ( 'NONE',  ( 0.0000000000000000000, 0.0000000000000000000, 39.65566924038402900 ) ) ;
#188 = DIRECTION ( 'NONE',  ( 0.0000000000000000000, 0.0000000000000000000, -1.000000000000000000 ) ) ;
#189 = APPROVAL_PERSON_ORGANIZATION ( #289, #71, #176 ) ;
#190 = AXIS2_PLACEMENT_3D ( 'NONE', #178, #146, #353 ) ;
#191 = COORDINATED_UNIVERSAL_TIME_OFFSET ( 5, 30, .AHEAD. ) ;
#192 = ORIENTED_EDGE ( 'NONE', *, *, #254, .F. ) ;
#193 = CONICAL_SURFACE ( 'NONE', #86, 13.32457351945710200, 0.5235987755982927100 ) ;
#194 = DIRECTION ( 'NONE',  ( 1.000000000000000000, 0.0000000000000000000, 0.0000000000000000000 ) ) ;
#195 = PERSON_AND_ORGANIZATION_ROLE ( 'design_supplier' ) ;
#196 = APPROVAL_STATUS ( 'not_yet_approved' ) ;
#197 = LINE ( 'NONE', #346, #265 ) ;
#198 = ORIENTED_EDGE ( 'NONE', *, *, #24, .T. ) ;
#199 = EDGE_LOOP ( 'NONE', ( #142, #204 ) ) ;
#200 = PERSON_AND_ORGANIZATION ( #284, #42 ) ;
#201 = EDGE_LOOP ( 'NONE', ( #355, #185 ) ) ;
#202 = MECHANICAL_CONTEXT ( 'NONE', #232, 'mechanical' ) ;
#203 = PRODUCT_DEFINITION_FORMATION_WITH_SPECIFIED_SOURCE ( 'ANY', '', #222, .NOT_KNOWN. ) ;
#204 = ORIENTED_EDGE ( 'NONE', *, *, #345, .F. ) ;
#205 = CIRCLE ( 'NONE', #286, 16.50000000000000000 ) ;
#206 = DIRECTION ( 'NONE',  ( -0.0000000000000000000, -0.0000000000000000000, 1.000000000000000000 ) ) ;
#207 = EDGE_CURVE ( 'NONE', #160, #263, #37, .T. ) ;
#208 = ORIENTED_EDGE ( 'NONE', *, *, #254, .T. ) ;
#209 = SECURITY_CLASSIFICATION_LEVEL ( 'unclassified' ) ;
#210 = DIRECTION ( 'NONE',  ( -0.0000000000000000000, -0.0000000000000000000, 1.000000000000000000 ) ) ;
#211 = ORIENTED_EDGE ( 'NONE', *, *, #207, .F. ) ;
#212 = CC_DESIGN_PERSON_AND_ORGANIZATION_ASSIGNMENT ( #273, #195, ( #203 ) ) ;
#213 = DIRECTION ( 'NONE',  ( 1.000000000000000000, 0.0000000000000000000, 0.0000000000000000000 ) ) ;
#214 = DIRECTION ( 'NONE',  ( -0.0000000000000000000, -0.0000000000000000000, 1.000000000000000000 ) ) ;
#215 = EDGE_LOOP ( 'NONE', ( #314, #326, #227, #20 ) ) ;
#216 = AXIS2_PLACEMENT_3D ( 'NONE', #171, #188, #218 ) ;
#217 = CALENDAR_DATE ( 2019, 9, 4 ) ;
#218 = DIRECTION ( 'NONE',  ( -1.000000000000000000, 0.0000000000000000000, -0.0000000000000000000 ) ) ;
#219 = DIRECTION ( 'NONE',  ( -0.0000000000000000000, -0.0000000000000000000, 1.000000000000000000 ) ) ;
#220 = ADVANCED_FACE ( 'NONE', ( #72 ), #13, .F. ) ;
#221 = VERTEX_POINT ( 'NONE', #73 ) ;
#222 = PRODUCT ( 'TAP COLLET ER 32G  6.0 X 4.9', 'TAP COLLET ER 32G  6.0 X 4.9', '', ( #202 ) ) ;
#223 = ORIENTED_EDGE ( 'NONE', *, *, #24, .F. ) ;
#224 = DIRECTION ( 'NONE',  ( 1.000000000000000000, 0.0000000000000000000, 0.0000000000000000000 ) ) ;
#225 = APPROVAL_STATUS ( 'not_yet_approved' ) ;
#226 = AXIS2_PLACEMENT_3D ( 'NONE', #356, #243, #64 ) ;
#227 = ORIENTED_EDGE ( 'NONE', *, *, #279, .T. ) ;
#228 = CIRCLE ( 'NONE', #239, 13.32457351945710200 ) ;
#229 = ORIENTED_EDGE ( 'NONE', *, *, #120, .F. ) ;
#230 =( NAMED_UNIT ( * ) SI_UNIT ( $, .STERADIAN. ) SOLID_ANGLE_UNIT ( ) );
#231 = EDGE_CURVE ( 'NONE', #109, #358, #150, .T. ) ;
#232 = APPLICATION_CONTEXT ( 'configuration controlled 3d designs of mechanical parts and assemblies' ) ;
#233 = APPROVAL_PERSON_ORGANIZATION ( #348, #108, #240 ) ;
#234 = ORIENTED_EDGE ( 'NONE', *, *, #119, .F. ) ;
#235 = APPLICATION_CONTEXT ( 'configuration controlled 3d designs of mechanical parts and assemblies' ) ;
#236 = CARTESIAN_POINT ( 'NONE',  ( 14.60000000000000000, 0.0000000000000000000, 5.500000000000005300 ) ) ;
#237 = EDGE_LOOP ( 'NONE', ( #287, #79 ) ) ;
#238 = MANIFOLD_SOLID_BREP ( 'Revolve1', #313 ) ;
#239 = AXIS2_PLACEMENT_3D ( 'NONE', #186, #316, #39 ) ;
#240 = APPROVAL_ROLE ( '' ) ;
#241 = CYLINDRICAL_SURFACE ( 'NONE', #368, 14.60000000000000000 ) ;
#242 = CARTESIAN_POINT ( 'NONE',  ( -14.60000000000000000, 1.787984326755135800E-015, 101.8074564848000400 ) ) ;
#243 = DIRECTION ( 'NONE',  ( -0.0000000000000000000, -0.0000000000000000000, 1.000000000000000000 ) ) ;
#244 = CARTESIAN_POINT ( 'NONE',  ( -14.60000000000000000, 1.787984326755135800E-015, 5.500000000000005300 ) ) ;
#245 = DIRECTION ( 'NONE',  ( 0.0000000000000000000, -0.0000000000000000000, 1.000000000000000000 ) ) ;
#246 = ORIENTED_EDGE ( 'NONE', *, *, #231, .T. ) ;
#247 = DIRECTION ( 'NONE',  ( 1.000000000000000000, 0.0000000000000000000, 0.0000000000000000000 ) ) ;
#248 = ORIENTED_EDGE ( 'NONE', *, *, #315, .F. ) ;
#249 = PLANE ( 'NONE',  #350 ) ;
#250 = ORIENTED_EDGE ( 'NONE', *, *, #345, .T. ) ;
#251 = CIRCLE ( 'NONE', #340, 12.20600611160694300 ) ;
#252 = LOCAL_TIME ( 16, 22, 45.00000000000000000, #191 ) ;
#253 = DIRECTION ( 'NONE',  ( 0.0000000000000000000, 0.0000000000000000000, 1.000000000000000000 ) ) ;
#254 = EDGE_CURVE ( 'NONE', #221, #113, #162, .T. ) ;
#255 = DIRECTION ( 'NONE',  ( 1.000000000000000000, 0.0000000000000000000, 0.0000000000000000000 ) ) ;
#256 = ADVANCED_FACE ( 'NONE', ( #50 ), #325, .T. ) ;
#257 = CC_DESIGN_DATE_AND_TIME_ASSIGNMENT ( #170, #149, ( #300 ) ) ;
#258 = ORIENTED_EDGE ( 'NONE', *, *, #92, .F. ) ;
#259 = CC_DESIGN_PERSON_AND_ORGANIZATION_ASSIGNMENT ( #200, #147, ( #222 ) ) ;
#260 = EDGE_CURVE ( 'NONE', #25, #283, #4, .T. ) ;
#261 = EDGE_LOOP ( 'NONE', ( #311, #347 ) ) ;
#262 = CARTESIAN_POINT ( 'NONE',  ( 0.0000000000000000000, 0.0000000000000000000, 39.65566924038402900 ) ) ;
#263 = VERTEX_POINT ( 'NONE', #145 ) ;
#264 = VERTEX_POINT ( 'NONE', #127 ) ;
#265 = VECTOR ( 'NONE', #2, 1000.000000000000000 ) ;
#266 = VECTOR ( 'NONE', #116, 1000.000000000000000 ) ;
#267 = FACE_OUTER_BOUND ( 'NONE', #261, .T. ) ;
#268 = CARTESIAN_POINT ( 'NONE',  ( 0.0000000000000000000, 0.0000000000000000000, 9.099999999999997900 ) ) ;
#269 = EDGE_LOOP ( 'NONE', ( #229, #250, #34, #248 ) ) ;
#270 = EDGE_CURVE ( 'NONE', #113, #221, #251, .T. ) ;
#271 = CARTESIAN_POINT ( 'NONE',  ( 0.0000000000000000000, 0.0000000000000000000, 9.099999999999997900 ) ) ;
#272 = CARTESIAN_POINT ( 'NONE',  ( 0.0000000000000000000, 16.50032537154048700, 9.099999999999999600 ) ) ;
#273 = PERSON_AND_ORGANIZATION ( #284, #42 ) ;
#274 = PERSON_AND_ORGANIZATION_ROLE ( 'classification_officer' ) ;
#275 = DIRECTION ( 'NONE',  ( 1.000000000000000000, 0.0000000000000000000, 0.0000000000000000000 ) ) ;
#276 = FACE_BOUND ( 'NONE', #199, .T. ) ;
#277 = LINE ( 'NONE', #303, #304 ) ;
#278 = AXIS2_PLACEMENT_3D ( 'NONE', #272, #245, #93 ) ;
#279 = EDGE_CURVE ( 'NONE', #113, #283, #378, .T. ) ;
#280 = DIRECTION ( 'NONE',  ( 1.000000000000000000, 0.0000000000000000000, 0.0000000000000000000 ) ) ;
#281 = EDGE_CURVE ( 'NONE', #221, #25, #197, .T. ) ;
#282 = ADVANCED_FACE ( 'NONE', ( #112 ), #126, .T. ) ;
#283 = VERTEX_POINT ( 'NONE', #89 ) ;
#284 = PERSON ( 'UNSPECIFIED', 'UNSPECIFIED', 'UNSPECIFIED', ('UNSPECIFIED'), ('UNSPECIFIED'), ('UNSPECIFIED') ) ;
#285 = FACE_BOUND ( 'NONE', #65, .T. ) ;
#286 = AXIS2_PLACEMENT_3D ( 'NONE', #367, #100, #320 ) ;
#287 = ORIENTED_EDGE ( 'NONE', *, *, #207, .T. ) ;
#288 =( NAMED_UNIT ( * ) PLANE_ANGLE_UNIT ( ) SI_UNIT ( $, .RADIAN. ) );
#289 = PERSON_AND_ORGANIZATION ( #284, #42 ) ;
#290 = EDGE_CURVE ( 'NONE', #129, #109, #132, .T. ) ;
#291 = CALENDAR_DATE ( 2019, 9, 4 ) ;
#292 = ORIENTED_EDGE ( 'NONE', *, *, #301, .F. ) ;
#293 = CC_DESIGN_PERSON_AND_ORGANIZATION_ASSIGNMENT ( #46, #84, ( #203 ) ) ;
#294 = DIRECTION ( 'NONE',  ( -0.0000000000000000000, -0.0000000000000000000, 1.000000000000000000 ) ) ;
#295 = CIRCLE ( 'NONE', #144, 14.60000000000000000 ) ;
#296 = DIRECTION ( 'NONE',  ( 0.0000000000000000000, 0.0000000000000000000, -1.000000000000000000 ) ) ;
#297 = EDGE_CURVE ( 'NONE', #155, #264, #332, .T. ) ;
#298 = ORIENTED_EDGE ( 'NONE', *, *, #324, .T. ) ;
#299 = CARTESIAN_POINT ( 'NONE',  ( 13.32457351945710200, 0.0000000000000000000, 0.0000000000000000000 ) ) ;
#300 = PRODUCT_DEFINITION ( 'UNKNOWN', '', #203, #153 ) ;
#301 = EDGE_CURVE ( 'NONE', #358, #109, #205, .T. ) ;
#302 = DIRECTION ( 'NONE',  ( -1.000000000000000000, 0.0000000000000000000, 0.0000000000000000000 ) ) ;
#303 = CARTESIAN_POINT ( 'NONE',  ( -13.32457351945710200, 1.631789631060672300E-015, 0.0000000000000000000 ) ) ;
#304 = VECTOR ( 'NONE', #63, 999.9999999999998900 ) ;
#305 = DIRECTION ( 'NONE',  ( 1.000000000000000000, 0.0000000000000000000, 0.0000000000000000000 ) ) ;
#306 = APPROVAL_DATE_TIME ( #163, #177 ) ;
#307 = AXIS2_PLACEMENT_3D ( 'NONE', #94, #67, #121 ) ;
#308 = VERTEX_POINT ( 'NONE', #327 ) ;
#309 = CARTESIAN_POINT ( 'NONE',  ( 0.0000000000000000000, 0.0000000000000000000, 39.60000000000000100 ) ) ;
#310 = DIRECTION ( 'NONE',  ( -0.0000000000000000000, -0.0000000000000000000, 1.000000000000000000 ) ) ;
#311 = ORIENTED_EDGE ( 'NONE', *, *, #148, .F. ) ;
#312 = CARTESIAN_POINT ( 'NONE',  ( 0.0000000000000000000, 0.0000000000000000000, 0.0000000000000000000 ) ) ;
#313 = CLOSED_SHELL ( 'NONE', ( #96, #130, #18, #10, #220, #3, #370, #29, #6, #44, #282, #256 ) ) ;
#314 = ORIENTED_EDGE ( 'NONE', *, *, #281, .F. ) ;
#315 = EDGE_CURVE ( 'NONE', #342, #264, #295, .T. ) ;
#316 = DIRECTION ( 'NONE',  ( -0.0000000000000000000, -0.0000000000000000000, 1.000000000000000000 ) ) ;
#317 = CONICAL_SURFACE ( 'NONE', #376, 16.50032537154048700, 0.1396263401595395900 ) ;
#318 = CALENDAR_DATE ( 2019, 9, 4 ) ;
#319 = EDGE_CURVE ( 'NONE', #155, #369, #166, .T. ) ;
#320 = DIRECTION ( 'NONE',  ( 1.000000000000000000, 0.0000000000000000000, 0.0000000000000000000 ) ) ;
#321 = ORIENTED_EDGE ( 'NONE', *, *, #315, .T. ) ;
#322 = SHAPE_DEFINITION_REPRESENTATION ( #101, #1 ) ;
#323 = UNCERTAINTY_MEASURE_WITH_UNIT (LENGTH_MEASURE( 1.000000000000000100E-005 ), #140, 'distance_accuracy_value', 'NONE');
#324 = EDGE_CURVE ( 'NONE', #129, #308, #352, .T. ) ;
#325 = TOROIDAL_SURFACE ( 'NONE', #328, 11.80989888411031400, 0.4000000000000026900 ) ;
#326 = ORIENTED_EDGE ( 'NONE', *, *, #270, .F. ) ;
#327 = CARTESIAN_POINT ( 'NONE',  ( -13.32457351945710200, 1.826228424826902600E-015, 0.0000000000000000000 ) ) ;
#328 = AXIS2_PLACEMENT_3D ( 'NONE', #76, #366, #194 ) ;
#329 = CARTESIAN_POINT ( 'NONE',  ( 11.80989888411031400, 0.0000000000000000000, 40.00000000000000700 ) ) ;
#330 = CALENDAR_DATE ( 2019, 9, 4 ) ;
#331 = APPLICATION_PROTOCOL_DEFINITION ( 'international standard', 'config_control_design', 1994, #235 ) ;
#332 = LINE ( 'NONE', #349, #338 ) ;
#333 = CARTESIAN_POINT ( 'NONE',  ( 0.0000000000000000000, 0.0000000000000000000, 0.0000000000000000000 ) ) ;
#334 = AXIS2_PLACEMENT_3D ( 'NONE', #156, #152, #31 ) ;
#335 = EDGE_LOOP ( 'NONE', ( #223, #375, #341, #258 ) ) ;
#336 = CARTESIAN_POINT ( 'NONE',  ( 0.0000000000000000000, 0.0000000000000000000, 0.0000000000000000000 ) ) ;
#337 = APPROVAL_DATE_TIME ( #343, #108 ) ;
#338 = VECTOR ( 'NONE', #62, 1000.000000000000000 ) ;
#339 = CYLINDRICAL_SURFACE ( 'NONE', #360, 14.60000000000000000 ) ;
#340 = AXIS2_PLACEMENT_3D ( 'NONE', #262, #54, #280 ) ;
#341 = ORIENTED_EDGE ( 'NONE', *, *, #52, .T. ) ;
#342 = VERTEX_POINT ( 'NONE', #373 ) ;
#343 = DATE_AND_TIME ( #217, #362 ) ;
#344 = CC_DESIGN_PERSON_AND_ORGANIZATION_ASSIGNMENT ( #123, #88, ( #300 ) ) ;
#345 = EDGE_CURVE ( 'NONE', #369, #155, #103, .T. ) ;
#346 = CARTESIAN_POINT ( 'NONE',  ( 16.50032537154048700, 2.020707065114692300E-015, 9.099999999999997900 ) ) ;
#347 = ORIENTED_EDGE ( 'NONE', *, *, #260, .F. ) ;
#348 = PERSON_AND_ORGANIZATION ( #284, #42 ) ;
#349 = CARTESIAN_POINT ( 'NONE',  ( 14.60000000000000000, 0.0000000000000000000, 101.8074564848000400 ) ) ;
#350 = AXIS2_PLACEMENT_3D ( 'NONE', #336, #36, #365 ) ;
#351 = CONICAL_SURFACE ( 'NONE', #357, 13.32457351945710200, 0.5235987755982927100 ) ;
#352 = CIRCLE ( 'NONE', #32, 13.32457351945710200 ) ;
#353 = DIRECTION ( 'NONE',  ( -1.000000000000000000, 0.0000000000000000000, 0.0000000000000000000 ) ) ;
#354 = CARTESIAN_POINT ( 'NONE',  ( -12.20600611160694300, 0.0000000000000000000, 39.65566924038402900 ) ) ;
#355 = ORIENTED_EDGE ( 'NONE', *, *, #324, .F. ) ;
#356 = CARTESIAN_POINT ( 'NONE',  ( 0.0000000000000000000, 0.0000000000000000000, 40.00000000000000700 ) ) ;
#357 = AXIS2_PLACEMENT_3D ( 'NONE', #312, #35, #159 ) ;
#358 = VERTEX_POINT ( 'NONE', #115 ) ;
#359 = DATE_AND_TIME ( #330, #26 ) ;
#360 = AXIS2_PLACEMENT_3D ( 'NONE', #95, #364, #275 ) ;
#361 = CARTESIAN_POINT ( 'NONE',  ( 0.0000000000000000000, 0.0000000000000000000, 101.8074564848000400 ) ) ;
#362 = LOCAL_TIME ( 16, 22, 45.00000000000000000, #372 ) ;
#363 = FACE_OUTER_BOUND ( 'NONE', #38, .T. ) ;
#364 = DIRECTION ( 'NONE',  ( -0.0000000000000000000, -0.0000000000000000000, 1.000000000000000000 ) ) ;
#365 = DIRECTION ( 'NONE',  ( 1.000000000000000000, 0.0000000000000000000, 0.0000000000000000000 ) ) ;
#366 = DIRECTION ( 'NONE',  ( -0.0000000000000000000, -0.0000000000000000000, 1.000000000000000000 ) ) ;
#367 = CARTESIAN_POINT ( 'NONE',  ( 0.0000000000000000000, 0.0000000000000000000, 5.500000000000005300 ) ) ;
#368 = AXIS2_PLACEMENT_3D ( 'NONE', #361, #310, #9 ) ;
#369 = VERTEX_POINT ( 'NONE', #244 ) ;
#370 = ADVANCED_FACE ( 'NONE', ( #22 ), #193, .T. ) ;
#371 = AXIS2_PLACEMENT_3D ( 'NONE', #27, #206, #305 ) ;
#372 = COORDINATED_UNIVERSAL_TIME_OFFSET ( 5, 30, .AHEAD. ) ;
#373 = CARTESIAN_POINT ( 'NONE',  ( -14.60000000000000000, 1.787984326755135800E-015, 9.099999999999997900 ) ) ;
#374 = ORIENTED_EDGE ( 'NONE', *, *, #297, .F. ) ;
#375 = ORIENTED_EDGE ( 'NONE', *, *, #270, .T. ) ;
#376 = AXIS2_PLACEMENT_3D ( 'NONE', #271, #296, #302 ) ;
#377 = AXIS2_PLACEMENT_3D ( 'NONE', #182, #8, #66 ) ;
#378 = LINE ( 'NONE', #61, #15 ) ;
#379 = CIRCLE ( 'NONE', #226, 11.80989888411031400 ) ;
#380 = PERSON_AND_ORGANIZATION ( #284, #42 ) ;
#381 = DIRECTION ( 'NONE',  ( 1.000000000000000000, 0.0000000000000000000, 0.0000000000000000000 ) ) ;
#382 = ORIENTED_EDGE ( 'NONE', *, *, #301, .T. ) ;
#383 = EDGE_CURVE ( 'NONE', #308, #129, #228, .T. ) ;
#384 = DATE_TIME_ROLE ( 'classification_date' ) ;
#385 = EDGE_CURVE ( 'NONE', #264, #342, #69, .T. ) ;
#386 = CARTESIAN_POINT ( 'NONE',  ( 13.32457351945710200, 0.0000000000000000000, 0.0000000000000000000 ) ) ;
#387 = AXIS2_PLACEMENT_3D ( 'NONE', #173, #253, #81 ) ;
ENDSEC;
END-ISO-10303-21;
