ISO-10303-21;
HEADER;
FILE_DESCRIPTION (( 'STEP AP203' ),
    '1' );
FILE_NAME ('TAP COLLET ER 25G  4.0 X 3.0.STEP',
    '2019-04-09T09:44:11',
    ( '' ),
    ( '' ),
    'SwSTEP 2.0',
    'SolidWorks 2014',
    '' );
FILE_SCHEMA (( 'CONFIG_CONTROL_DESIGN' ));
ENDSEC;

DATA;
#1 = ADVANCED_FACE ( 'NONE', ( #355 ), #174, .T. ) ;
#2 = CIRCLE ( 'NONE', #239, 13.00000000000000000 ) ;
#3 = ORIENTED_EDGE ( 'NONE', *, *, #278, .T. ) ;
#4 = CARTESIAN_POINT ( 'NONE',  ( 0.0000000000000000000, 0.0000000000000000000, 4.742050807568884500 ) ) ;
#5 = AXIS2_PLACEMENT_3D ( 'NONE', #22, #325, #41 ) ;
#6 = DIRECTION ( 'NONE',  ( -0.0000000000000000000, -0.0000000000000000000, 1.000000000000000000 ) ) ;
#7 = APPROVAL_ROLE ( '' ) ;
#8 = VECTOR ( 'NONE', #247, 1000.000000000000000 ) ;
#9 = EDGE_LOOP ( 'NONE', ( #150, #373, #204, #86 ) ) ;
#10 = APPROVAL_ROLE ( '' ) ;
#11 = ORIENTED_EDGE ( 'NONE', *, *, #249, .F. ) ;
#12 = APPROVAL_PERSON_ORGANIZATION ( #245, #114, #7 ) ;
#13 = AXIS2_PLACEMENT_3D ( 'NONE', #222, #279, #229 ) ;
#14 = CARTESIAN_POINT ( 'NONE',  ( 10.26217568973925200, 0.0000000000000000000, 0.0000000000000000000 ) ) ;
#15 = CIRCLE ( 'NONE', #167, 13.00000000000000000 ) ;
#16 = LOCAL_TIME ( 15, 14, 11.00000000000000000, #24 ) ;
#17 = EDGE_CURVE ( 'NONE', #163, #372, #318, .T. ) ;
#18 = ORIENTED_EDGE ( 'NONE', *, *, #208, .T. ) ;
#19 = CARTESIAN_POINT ( 'NONE',  ( 0.0000000000000000000, 0.0000000000000000000, 7.842050807568876200 ) ) ;
#20 = PRODUCT_DEFINITION_FORMATION_WITH_SPECIFIED_SOURCE ( 'ANY', '', #304, .NOT_KNOWN. ) ;
#21 = EDGE_LOOP ( 'NONE', ( #288, #252, #351, #185 ) ) ;
#22 = CARTESIAN_POINT ( 'NONE',  ( 0.0000000000000000000, 0.0000000000000000000, 101.8074564848000400 ) ) ;
#23 = PERSON ( 'UNSPECIFIED', 'UNSPECIFIED', 'UNSPECIFIED', ('UNSPECIFIED'), ('UNSPECIFIED'), ('UNSPECIFIED') ) ;
#24 = COORDINATED_UNIVERSAL_TIME_OFFSET ( 5, 30, .AHEAD. ) ;
#25 = ORIENTED_EDGE ( 'NONE', *, *, #293, .F. ) ;
#26 = COORDINATED_UNIVERSAL_TIME_OFFSET ( 5, 30, .AHEAD. ) ;
#27 = DIRECTION ( 'NONE',  ( -1.000000000000000000, 0.0000000000000000000, 0.0000000000000000000 ) ) ;
#28 = CARTESIAN_POINT ( 'NONE',  ( -11.00000000000000000, 1.347111479062088400E-015, 7.842050807568890400 ) ) ;
#29 = DATE_AND_TIME ( #85, #16 ) ;
#30 = APPROVAL_DATE_TIME ( #284, #114 ) ;
#31 = CARTESIAN_POINT ( 'NONE',  ( -11.00000000000000000, 1.347111479062088400E-015, 101.8074564848000400 ) ) ;
#32 = AXIS2_PLACEMENT_3D ( 'NONE', #297, #331, #205 ) ;
#33 = PERSON_AND_ORGANIZATION ( #23, #132 ) ;
#34 = DIRECTION ( 'NONE',  ( 0.0000000000000000000, 0.0000000000000000000, -1.000000000000000000 ) ) ;
#35 = ORIENTED_EDGE ( 'NONE', *, *, #382, .T. ) ;
#36 = APPLICATION_PROTOCOL_DEFINITION ( 'international standard', 'config_control_design', 1994, #335 ) ;
#37 =( GEOMETRIC_REPRESENTATION_CONTEXT ( 3 ) GLOBAL_UNCERTAINTY_ASSIGNED_CONTEXT ( ( #380 ) ) GLOBAL_UNIT_ASSIGNED_CONTEXT ( ( #77, #306, #363 ) ) REPRESENTATION_CONTEXT ( 'NONE', 'WORKASPACE' ) );
#38 = VERTEX_POINT ( 'NONE', #147 ) ;
#39 = CALENDAR_DATE ( 2019, 9, 4 ) ;
#40 = EDGE_CURVE ( 'NONE', #210, #38, #243, .T. ) ;
#41 = DIRECTION ( 'NONE',  ( 1.000000000000000000, 0.0000000000000000000, 0.0000000000000000000 ) ) ;
#42 = SECURITY_CLASSIFICATION_LEVEL ( 'unclassified' ) ;
#43 = VECTOR ( 'NONE', #255, 1000.000000000000000 ) ;
#44 = VERTEX_POINT ( 'NONE', #108 ) ;
#45 = PERSON_AND_ORGANIZATION ( #23, #132 ) ;
#46 = VERTEX_POINT ( 'NONE', #179 ) ;
#47 = DIRECTION ( 'NONE',  ( -0.0000000000000000000, -0.0000000000000000000, 1.000000000000000000 ) ) ;
#48 = AXIS2_PLACEMENT_3D ( 'NONE', #160, #294, #320 ) ;
#49 = ORIENTED_EDGE ( 'NONE', *, *, #152, .F. ) ;
#50 = LOCAL_TIME ( 15, 14, 11.00000000000000000, #26 ) ;
#51 = ADVANCED_FACE ( 'NONE', ( #79 ), #323, .T. ) ;
#52 = PLANE ( 'NONE',  #330 ) ;
#53 = CIRCLE ( 'NONE', #72, 11.00000000000000000 ) ;
#54 = FACE_OUTER_BOUND ( 'NONE', #64, .T. ) ;
#55 = CARTESIAN_POINT ( 'NONE',  ( 0.0000000000000000000, 0.0000000000000000000, 4.742050807568884500 ) ) ;
#56 = ORIENTED_EDGE ( 'NONE', *, *, #40, .F. ) ;
#57 = AXIS2_PLACEMENT_3D ( 'NONE', #19, #246, #248 ) ;
#58 = ORIENTED_EDGE ( 'NONE', *, *, #382, .F. ) ;
#59 = DIRECTION ( 'NONE',  ( 1.000000000000000000, 0.0000000000000000000, 0.0000000000000000000 ) ) ;
#60 = DIRECTION ( 'NONE',  ( 0.0000000000000000000, 0.0000000000000000000, -1.000000000000000000 ) ) ;
#61 = CIRCLE ( 'NONE', #343, 13.03657776635556700 ) ;
#62 = APPROVAL_STATUS ( 'not_yet_approved' ) ;
#63 = DATE_AND_TIME ( #354, #378 ) ;
#64 = EDGE_LOOP ( 'NONE', ( #196, #379 ) ) ;
#65 = DIRECTION ( 'NONE',  ( 1.000000000000000000, 0.0000000000000000000, 0.0000000000000000000 ) ) ;
#66 = APPROVAL ( #227, 'UNSPECIFIED' ) ;
#67 = PERSON_AND_ORGANIZATION ( #23, #132 ) ;
#68 = CC_DESIGN_SECURITY_CLASSIFICATION ( #96, ( #20 ) ) ;
#69 = ORIENTED_EDGE ( 'NONE', *, *, #102, .T. ) ;
#70 = CARTESIAN_POINT ( 'NONE',  ( 0.0000000000000000000, 0.0000000000000000000, 33.65566924038402900 ) ) ;
#71 = ADVANCED_FACE ( 'NONE', ( #201, #54 ), #166, .F. ) ;
#72 = AXIS2_PLACEMENT_3D ( 'NONE', #148, #314, #159 ) ;
#73 = CALENDAR_DATE ( 2019, 9, 4 ) ;
#74 = VERTEX_POINT ( 'NONE', #211 ) ;
#75 = ADVANCED_FACE ( 'NONE', ( #274, #337 ), #256, .F. ) ;
#76 = CARTESIAN_POINT ( 'NONE',  ( -9.012603057622234500, 1.103725548650271700E-015, 33.60000000000000100 ) ) ;
#77 =( LENGTH_UNIT ( ) NAMED_UNIT ( * ) SI_UNIT ( .MILLI., .METRE. ) );
#78 = AXIS2_PLACEMENT_3D ( 'NONE', #285, #34, #27 ) ;
#79 = FACE_OUTER_BOUND ( 'NONE', #9, .T. ) ;
#80 = CARTESIAN_POINT ( 'NONE',  ( 0.0000000000000000000, 0.0000000000000000000, 33.60000000000000100 ) ) ;
#81 = PERSON_AND_ORGANIZATION ( #23, #132 ) ;
#82 = EDGE_LOOP ( 'NONE', ( #259, #359, #370, #362 ) ) ;
#83 = PERSON_AND_ORGANIZATION ( #23, #132 ) ;
#84 = EDGE_CURVE ( 'NONE', #299, #220, #258, .T. ) ;
#85 = CALENDAR_DATE ( 2019, 9, 4 ) ;
#86 = ORIENTED_EDGE ( 'NONE', *, *, #315, .F. ) ;
#87 = ORIENTED_EDGE ( 'NONE', *, *, #149, .F. ) ;
#88 = FACE_OUTER_BOUND ( 'NONE', #265, .T. ) ;
#89 = AXIS2_PLACEMENT_3D ( 'NONE', #4, #127, #65 ) ;
#90 = LINE ( 'NONE', #360, #195 ) ;
#91 = AXIS2_PLACEMENT_3D ( 'NONE', #292, #151, #110 ) ;
#92 = FACE_OUTER_BOUND ( 'NONE', #271, .T. ) ;
#93 = CC_DESIGN_PERSON_AND_ORGANIZATION_ASSIGNMENT ( #340, #138, ( #113 ) ) ;
#94 = CIRCLE ( 'NONE', #311, 9.408710285118862900 ) ;
#95 = DATE_AND_TIME ( #338, #50 ) ;
#96 = SECURITY_CLASSIFICATION ( '', '', #42 ) ;
#97 = LINE ( 'NONE', #31, #168 ) ;
#98 = DIRECTION ( 'NONE',  ( 0.0000000000000000000, 0.0000000000000000000, -1.000000000000000000 ) ) ;
#99 = DIRECTION ( 'NONE',  ( -1.000000000000000000, 0.0000000000000000000, -0.0000000000000000000 ) ) ;
#100 = VERTEX_POINT ( 'NONE', #120 ) ;
#101 = ORIENTED_EDGE ( 'NONE', *, *, #17, .T. ) ;
#102 = EDGE_CURVE ( 'NONE', #38, #210, #296, .T. ) ;
#103 = DIRECTION ( 'NONE',  ( -0.1391731009600587800, 0.0000000000000000000, -0.9902680687415712500 ) ) ;
#104 = CLOSED_SHELL ( 'NONE', ( #217, #275, #374, #233, #200, #51, #71, #327, #75, #182, #1, #158 ) ) ;
#105 = CARTESIAN_POINT ( 'NONE',  ( 11.00000000000000000, 0.0000000000000000000, 4.742050807568884500 ) ) ;
#106 = DIRECTION ( 'NONE',  ( -0.0000000000000000000, -0.0000000000000000000, 1.000000000000000000 ) ) ;
#107 = CIRCLE ( 'NONE', #260, 0.3999999999999975800 ) ;
#108 = CARTESIAN_POINT ( 'NONE',  ( -13.00000000000000000, 1.592040838891559100E-015, 4.742050807568884500 ) ) ;
#109 = DIRECTION ( 'NONE',  ( 1.000000000000000000, 0.0000000000000000000, 0.0000000000000000000 ) ) ;
#110 = DIRECTION ( 'NONE',  ( 1.000000000000000000, 0.0000000000000000000, 0.0000000000000000000 ) ) ;
#111 = DIRECTION ( 'NONE',  ( -0.0000000000000000000, -0.0000000000000000000, 1.000000000000000000 ) ) ;
#112 = ORIENTED_EDGE ( 'NONE', *, *, #152, .T. ) ;
#113 = PRODUCT_DEFINITION ( 'UNKNOWN', '', #20, #368 ) ;
#114 = APPROVAL ( #187, 'UNSPECIFIED' ) ;
#115 = DIRECTION ( 'NONE',  ( -0.0000000000000000000, -0.0000000000000000000, 1.000000000000000000 ) ) ;
#116 = EDGE_CURVE ( 'NONE', #46, #141, #281, .T. ) ;
#117 = CONICAL_SURFACE ( 'NONE', #188, 10.26217568973925200, 0.5235987755982940400 ) ;
#118 = CARTESIAN_POINT ( 'NONE',  ( 13.00000000000000000, 0.0000000000000000000, 4.742050807568884500 ) ) ;
#119 = COORDINATED_UNIVERSAL_TIME_OFFSET ( 5, 30, .AHEAD. ) ;
#120 = CARTESIAN_POINT ( 'NONE',  ( 9.408710285118862900, 1.374377508408924700E-015, 33.65566924038402900 ) ) ;
#121 = ORIENTED_EDGE ( 'NONE', *, *, #356, .T. ) ;
#122 = CARTESIAN_POINT ( 'NONE',  ( -13.03657776635556700, 0.0000000000000000000, 7.842050807568876200 ) ) ;
#123 = SHAPE_DEFINITION_REPRESENTATION ( #339, #165 ) ;
#124 = CC_DESIGN_DATE_AND_TIME_ASSIGNMENT ( #219, #181, ( #96 ) ) ;
#125 = VERTEX_POINT ( 'NONE', #214 ) ;
#126 = APPROVAL_DATE_TIME ( #29, #240 ) ;
#127 = DIRECTION ( 'NONE',  ( -0.0000000000000000000, -0.0000000000000000000, 1.000000000000000000 ) ) ;
#128 = CIRCLE ( 'NONE', #213, 10.26217568973925200 ) ;
#129 = DIRECTION ( 'NONE',  ( -0.4999999999999957800, 6.123233995736714300E-017, 0.8660254037844410400 ) ) ;
#130 = DIRECTION ( 'NONE',  ( -0.0000000000000000000, -0.0000000000000000000, 1.000000000000000000 ) ) ;
#131 = CARTESIAN_POINT ( 'NONE',  ( 0.0000000000000000000, 0.0000000000000000000, 0.0000000000000000000 ) ) ;
#132 = ORGANIZATION ( 'UNSPECIFIED', 'UNSPECIFIED', '' ) ;
#133 = CARTESIAN_POINT ( 'NONE',  ( 0.0000000000000000000, 0.0000000000000000000, 0.0000000000000000000 ) ) ;
#134 = ORIENTED_EDGE ( 'NONE', *, *, #116, .T. ) ;
#135 = CARTESIAN_POINT ( 'NONE',  ( 0.0000000000000000000, 0.0000000000000000000, 7.842050807568876200 ) ) ;
#136 = CARTESIAN_POINT ( 'NONE',  ( 0.0000000000000000000, 0.0000000000000000000, 7.842050807568890400 ) ) ;
#137 = DIRECTION ( 'NONE',  ( 1.000000000000000000, 0.0000000000000000000, 0.0000000000000000000 ) ) ;
#138 = PERSON_AND_ORGANIZATION_ROLE ( 'creator' ) ;
#139 = DIRECTION ( 'NONE',  ( -0.0000000000000000000, -0.0000000000000000000, 1.000000000000000000 ) ) ;
#140 = DIRECTION ( 'NONE',  ( 1.000000000000000000, 0.0000000000000000000, 0.0000000000000000000 ) ) ;
#141 = VERTEX_POINT ( 'NONE', #194 ) ;
#142 = CARTESIAN_POINT ( 'NONE',  ( 0.0000000000000000000, 0.0000000000000000000, 7.842050807568876200 ) ) ;
#143 = CARTESIAN_POINT ( 'NONE',  ( 0.0000000000000000000, 0.0000000000000000000, 0.0000000000000000000 ) ) ;
#144 = CARTESIAN_POINT ( 'NONE',  ( 0.0000000000000000000, 0.0000000000000000000, 101.8074564848000400 ) ) ;
#145 = CC_DESIGN_PERSON_AND_ORGANIZATION_ASSIGNMENT ( #83, #242, ( #20 ) ) ;
#146 = ORIENTED_EDGE ( 'NONE', *, *, #149, .T. ) ;
#147 = CARTESIAN_POINT ( 'NONE',  ( 11.00000000000000000, 0.0000000000000000000, 7.842050807568890400 ) ) ;
#148 = CARTESIAN_POINT ( 'NONE',  ( 0.0000000000000000000, 0.0000000000000000000, 4.742050807568884500 ) ) ;
#149 = EDGE_CURVE ( 'NONE', #100, #46, #107, .T. ) ;
#150 = ORIENTED_EDGE ( 'NONE', *, *, #199, .F. ) ;
#151 = DIRECTION ( 'NONE',  ( -0.0000000000000000000, -0.0000000000000000000, 1.000000000000000000 ) ) ;
#152 = EDGE_CURVE ( 'NONE', #74, #141, #269, .T. ) ;
#153 = FACE_OUTER_BOUND ( 'NONE', #303, .T. ) ;
#154 = CARTESIAN_POINT ( 'NONE',  ( 0.0000000000000000000, 0.0000000000000000000, 33.65566924038402900 ) ) ;
#155 = ORIENTED_EDGE ( 'NONE', *, *, #257, .F. ) ;
#156 = DIRECTION ( 'NONE',  ( 1.000000000000000000, 0.0000000000000000000, 0.0000000000000000000 ) ) ;
#157 = CONICAL_SURFACE ( 'NONE', #78, 13.03657776635556700, 0.1396263401595396500 ) ;
#158 = ADVANCED_FACE ( 'NONE', ( #237 ), #52, .F. ) ;
#159 = DIRECTION ( 'NONE',  ( 1.000000000000000000, 0.0000000000000000000, 0.0000000000000000000 ) ) ;
#160 = CARTESIAN_POINT ( 'NONE',  ( 0.0000000000000000000, 13.00000000000000000, 4.742050807568884500 ) ) ;
#161 = CYLINDRICAL_SURFACE ( 'NONE', #5, 11.00000000000000000 ) ;
#162 = DIRECTION ( 'NONE',  ( -0.0000000000000000000, -0.0000000000000000000, 1.000000000000000000 ) ) ;
#163 = VERTEX_POINT ( 'NONE', #105 ) ;
#164 = VERTEX_POINT ( 'NONE', #341 ) ;
#165 = ADVANCED_BREP_SHAPE_REPRESENTATION ( 'TAP COLLET ER 25G  4.0 X 3.0', ( #186, #301 ), #37 ) ;
#166 = PLANE ( 'NONE',  #48 ) ;
#167 = AXIS2_PLACEMENT_3D ( 'NONE', #55, #139, #272 ) ;
#168 = VECTOR ( 'NONE', #115, 1000.000000000000000 ) ;
#169 = APPROVAL_DATE_TIME ( #95, #66 ) ;
#170 = DIRECTION ( 'NONE',  ( 1.000000000000000000, 0.0000000000000000000, 0.0000000000000000000 ) ) ;
#171 = LINE ( 'NONE', #267, #43 ) ;
#172 = DIRECTION ( 'NONE',  ( -0.0000000000000000000, -0.0000000000000000000, 1.000000000000000000 ) ) ;
#173 = EDGE_CURVE ( 'NONE', #74, #299, #189, .T. ) ;
#174 = TOROIDAL_SURFACE ( 'NONE', #282, 9.012603057622234500, 0.4000000000000009700 ) ;
#175 = DIRECTION ( 'NONE',  ( 1.000000000000000000, 0.0000000000000000000, 0.0000000000000000000 ) ) ;
#176 = CC_DESIGN_PERSON_AND_ORGANIZATION_ASSIGNMENT ( #191, #384, ( #96 ) ) ;
#177 = FACE_OUTER_BOUND ( 'NONE', #273, .T. ) ;
#178 = LOCAL_TIME ( 15, 14, 11.00000000000000000, #231 ) ;
#179 = CARTESIAN_POINT ( 'NONE',  ( 9.012603057622234500, 0.0000000000000000000, 34.00000000000000000 ) ) ;
#180 = CIRCLE ( 'NONE', #232, 9.408710285118862900 ) ;
#181 = DATE_TIME_ROLE ( 'classification_date' ) ;
#182 = ADVANCED_FACE ( 'NONE', ( #177 ), #157, .T. ) ;
#183 = LOCAL_TIME ( 15, 14, 11.00000000000000000, #119 ) ;
#184 = DIRECTION ( 'NONE',  ( -0.0000000000000000000, -0.0000000000000000000, 1.000000000000000000 ) ) ;
#185 = ORIENTED_EDGE ( 'NONE', *, *, #173, .F. ) ;
#186 = MANIFOLD_SOLID_BREP ( 'Revolve1', #104 ) ;
#187 = APPROVAL_STATUS ( 'not_yet_approved' ) ;
#188 = AXIS2_PLACEMENT_3D ( 'NONE', #235, #238, #352 ) ;
#189 = LINE ( 'NONE', #348, #286 ) ;
#190 = ORIENTED_EDGE ( 'NONE', *, *, #356, .F. ) ;
#191 = PERSON_AND_ORGANIZATION ( #23, #132 ) ;
#192 = ORIENTED_EDGE ( 'NONE', *, *, #173, .T. ) ;
#193 = CARTESIAN_POINT ( 'NONE',  ( 9.012603057622234500, 0.0000000000000000000, 33.60000000000000100 ) ) ;
#194 = CARTESIAN_POINT ( 'NONE',  ( -9.012603057622234500, 1.127980121063915600E-015, 34.00000000000000000 ) ) ;
#195 = VECTOR ( 'NONE', #129, 1000.000000000000200 ) ;
#196 = ORIENTED_EDGE ( 'NONE', *, *, #264, .T. ) ;
#197 = CARTESIAN_POINT ( 'NONE',  ( 13.03657776635556700, 1.596520323340289600E-015, 7.842050807568876200 ) ) ;
#198 = ORIENTED_EDGE ( 'NONE', *, *, #364, .T. ) ;
#199 = EDGE_CURVE ( 'NONE', #164, #44, #90, .T. ) ;
#200 = ADVANCED_FACE ( 'NONE', ( #88 ), #361, .F. ) ;
#201 = FACE_BOUND ( 'NONE', #319, .T. ) ;
#202 = CC_DESIGN_APPROVAL ( #114, ( #20 ) ) ;
#203 = DIRECTION ( 'NONE',  ( 1.000000000000000000, 0.0000000000000000000, 0.0000000000000000000 ) ) ;
#204 = ORIENTED_EDGE ( 'NONE', *, *, #313, .T. ) ;
#205 = DIRECTION ( 'NONE',  ( 1.000000000000000000, 0.0000000000000000000, 0.0000000000000000000 ) ) ;
#206 = ORIENTED_EDGE ( 'NONE', *, *, #364, .F. ) ;
#207 = CARTESIAN_POINT ( 'NONE',  ( -11.00000000000000000, 1.347111479062088400E-015, 4.742050807568884500 ) ) ;
#208 = EDGE_CURVE ( 'NONE', #100, #74, #94, .T. ) ;
#209 = EDGE_LOOP ( 'NONE', ( #49, #198, #146, #58 ) ) ;
#210 = VERTEX_POINT ( 'NONE', #28 ) ;
#211 = CARTESIAN_POINT ( 'NONE',  ( -9.408710285118862900, 0.0000000000000000000, 33.65566924038402900 ) ) ;
#212 = CIRCLE ( 'NONE', #326, 10.26217568973925200 ) ;
#213 = AXIS2_PLACEMENT_3D ( 'NONE', #131, #130, #137 ) ;
#214 = CARTESIAN_POINT ( 'NONE',  ( 10.26217568973925200, 0.0000000000000000000, 0.0000000000000000000 ) ) ;
#215 = ORIENTED_EDGE ( 'NONE', *, *, #116, .F. ) ;
#216 = AXIS2_PLACEMENT_3D ( 'NONE', #342, #371, #236 ) ;
#217 = ADVANCED_FACE ( 'NONE', ( #153 ), #250, .T. ) ;
#218 = DIRECTION ( 'NONE',  ( 1.000000000000000000, 0.0000000000000000000, 0.0000000000000000000 ) ) ;
#219 = DATE_AND_TIME ( #39, #183 ) ;
#220 = VERTEX_POINT ( 'NONE', #197 ) ;
#221 = DIRECTION ( 'NONE',  ( 0.0000000000000000000, 0.0000000000000000000, 1.000000000000000000 ) ) ;
#222 = CARTESIAN_POINT ( 'NONE',  ( 0.0000000000000000000, 0.0000000000000000000, 33.60000000000000100 ) ) ;
#223 = LINE ( 'NONE', #305, #8 ) ;
#224 = ORIENTED_EDGE ( 'NONE', *, *, #17, .F. ) ;
#225 = AXIS2_PLACEMENT_3D ( 'NONE', #133, #385, #175 ) ;
#226 = APPROVAL_ROLE ( '' ) ;
#227 = APPROVAL_STATUS ( 'not_yet_approved' ) ;
#228 = CARTESIAN_POINT ( 'NONE',  ( 0.0000000000000000000, 0.0000000000000000000, 34.00000000000000000 ) ) ;
#229 = DIRECTION ( 'NONE',  ( 1.000000000000000000, 0.0000000000000000000, 0.0000000000000000000 ) ) ;
#230 = EDGE_LOOP ( 'NONE', ( #69, #277 ) ) ;
#231 = COORDINATED_UNIVERSAL_TIME_OFFSET ( 5, 30, .AHEAD. ) ;
#232 = AXIS2_PLACEMENT_3D ( 'NONE', #70, #111, #59 ) ;
#233 = ADVANCED_FACE ( 'NONE', ( #263 ), #117, .T. ) ;
#234 = DIRECTION ( 'NONE',  ( 1.000000000000000000, 0.0000000000000000000, 0.0000000000000000000 ) ) ;
#235 = CARTESIAN_POINT ( 'NONE',  ( 0.0000000000000000000, 0.0000000000000000000, 0.0000000000000000000 ) ) ;
#236 = DIRECTION ( 'NONE',  ( 1.000000000000000000, 0.0000000000000000000, 0.0000000000000000000 ) ) ;
#237 = FACE_OUTER_BOUND ( 'NONE', #386, .T. ) ;
#238 = DIRECTION ( 'NONE',  ( -0.0000000000000000000, -0.0000000000000000000, 1.000000000000000000 ) ) ;
#239 = AXIS2_PLACEMENT_3D ( 'NONE', #290, #261, #266 ) ;
#240 = APPROVAL ( #62, 'UNSPECIFIED' ) ;
#241 = CARTESIAN_POINT ( 'NONE',  ( 0.0000000000000000000, 0.0000000000000000000, 7.842050807568890400 ) ) ;
#242 = PERSON_AND_ORGANIZATION_ROLE ( 'creator' ) ;
#243 = CIRCLE ( 'NONE', #321, 11.00000000000000000 ) ;
#244 = AXIS2_PLACEMENT_3D ( 'NONE', #241, #162, #312 ) ;
#245 = PERSON_AND_ORGANIZATION ( #23, #132 ) ;
#246 = DIRECTION ( 'NONE',  ( -0.0000000000000000000, -0.0000000000000000000, 1.000000000000000000 ) ) ;
#247 = DIRECTION ( 'NONE',  ( 0.1391731009600587800, 1.704378926181474000E-017, -0.9902680687415712500 ) ) ;
#248 = DIRECTION ( 'NONE',  ( 1.000000000000000000, 0.0000000000000000000, 0.0000000000000000000 ) ) ;
#249 = EDGE_CURVE ( 'NONE', #100, #220, #223, .T. ) ;
#250 = TOROIDAL_SURFACE ( 'NONE', #13, 9.012603057622234500, 0.4000000000000009700 ) ;
#251 = APPROVAL_PERSON_ORGANIZATION ( #67, #66, #10 ) ;
#252 = ORIENTED_EDGE ( 'NONE', *, *, #249, .T. ) ;
#253 = DIRECTION ( 'NONE',  ( 0.0000000000000000000, -1.000000000000000000, 0.0000000000000000000 ) ) ;
#254 = DIRECTION ( 'NONE',  ( 0.0000000000000000000, 0.0000000000000000000, -1.000000000000000000 ) ) ;
#255 = DIRECTION ( 'NONE',  ( -0.0000000000000000000, -0.0000000000000000000, 1.000000000000000000 ) ) ;
#256 = PLANE ( 'NONE',  #216 ) ;
#257 = EDGE_CURVE ( 'NONE', #125, #164, #128, .T. ) ;
#258 = CIRCLE ( 'NONE', #57, 13.03657776635556700 ) ;
#259 = ORIENTED_EDGE ( 'NONE', *, *, #257, .T. ) ;
#260 = AXIS2_PLACEMENT_3D ( 'NONE', #193, #253, #98 ) ;
#261 = DIRECTION ( 'NONE',  ( -0.0000000000000000000, -0.0000000000000000000, 1.000000000000000000 ) ) ;
#262 = AXIS2_PLACEMENT_3D ( 'NONE', #135, #254, #300 ) ;
#263 = FACE_OUTER_BOUND ( 'NONE', #82, .T. ) ;
#264 = EDGE_CURVE ( 'NONE', #309, #44, #2, .T. ) ;
#265 = EDGE_LOOP ( 'NONE', ( #155, #25 ) ) ;
#266 = DIRECTION ( 'NONE',  ( 1.000000000000000000, 0.0000000000000000000, 0.0000000000000000000 ) ) ;
#267 = CARTESIAN_POINT ( 'NONE',  ( 11.00000000000000000, 0.0000000000000000000, 101.8074564848000400 ) ) ;
#268 = MECHANICAL_CONTEXT ( 'NONE', #377, 'mechanical' ) ;
#269 = CIRCLE ( 'NONE', #376, 0.4000000000000010200 ) ;
#270 = DIRECTION ( 'NONE',  ( -0.0000000000000000000, -0.0000000000000000000, 1.000000000000000000 ) ) ;
#271 = EDGE_LOOP ( 'NONE', ( #190, #358, #3, #56 ) ) ;
#272 = DIRECTION ( 'NONE',  ( 1.000000000000000000, 0.0000000000000000000, 0.0000000000000000000 ) ) ;
#273 = EDGE_LOOP ( 'NONE', ( #11, #206, #192, #291 ) ) ;
#274 = FACE_OUTER_BOUND ( 'NONE', #345, .T. ) ;
#275 = ADVANCED_FACE ( 'NONE', ( #357 ), #365, .T. ) ;
#276 = DIRECTION ( 'NONE',  ( 1.224646799147353200E-016, 1.000000000000000000, 0.0000000000000000000 ) ) ;
#277 = ORIENTED_EDGE ( 'NONE', *, *, #40, .T. ) ;
#278 = EDGE_CURVE ( 'NONE', #163, #38, #171, .T. ) ;
#279 = DIRECTION ( 'NONE',  ( -0.0000000000000000000, -0.0000000000000000000, 1.000000000000000000 ) ) ;
#280 = DIRECTION ( 'NONE',  ( -0.0000000000000000000, -0.0000000000000000000, 1.000000000000000000 ) ) ;
#281 = CIRCLE ( 'NONE', #91, 9.012603057622234500 ) ;
#282 = AXIS2_PLACEMENT_3D ( 'NONE', #80, #172, #234 ) ;
#283 = ORIENTED_EDGE ( 'NONE', *, *, #278, .F. ) ;
#284 = DATE_AND_TIME ( #73, #178 ) ;
#285 = CARTESIAN_POINT ( 'NONE',  ( 0.0000000000000000000, 0.0000000000000000000, 7.842050807568876200 ) ) ;
#286 = VECTOR ( 'NONE', #103, 1000.000000000000000 ) ;
#287 = AXIS2_PLACEMENT_3D ( 'NONE', #228, #106, #156 ) ;
#288 = ORIENTED_EDGE ( 'NONE', *, *, #208, .F. ) ;
#289 = CC_DESIGN_APPROVAL ( #240, ( #96 ) ) ;
#290 = CARTESIAN_POINT ( 'NONE',  ( 0.0000000000000000000, 0.0000000000000000000, 4.742050807568884500 ) ) ;
#291 = ORIENTED_EDGE ( 'NONE', *, *, #84, .T. ) ;
#292 = CARTESIAN_POINT ( 'NONE',  ( 0.0000000000000000000, 0.0000000000000000000, 34.00000000000000000 ) ) ;
#293 = EDGE_CURVE ( 'NONE', #164, #125, #212, .T. ) ;
#294 = DIRECTION ( 'NONE',  ( 0.0000000000000000000, 0.0000000000000000000, -1.000000000000000000 ) ) ;
#295 = DIRECTION ( 'NONE',  ( 0.4999999999999957800, 0.0000000000000000000, 0.8660254037844410400 ) ) ;
#296 = CIRCLE ( 'NONE', #244, 11.00000000000000000 ) ;
#297 = CARTESIAN_POINT ( 'NONE',  ( 0.0000000000000000000, 0.0000000000000000000, 0.0000000000000000000 ) ) ;
#298 = PERSON_AND_ORGANIZATION_ROLE ( 'design_owner' ) ;
#299 = VERTEX_POINT ( 'NONE', #122 ) ;
#300 = DIRECTION ( 'NONE',  ( -1.000000000000000000, 0.0000000000000000000, 0.0000000000000000000 ) ) ;
#301 = AXIS2_PLACEMENT_3D ( 'NONE', #143, #221, #366 ) ;
#302 = CARTESIAN_POINT ( 'NONE',  ( 0.0000000000000000000, 0.0000000000000000000, 0.0000000000000000000 ) ) ;
#303 = EDGE_LOOP ( 'NONE', ( #18, #112, #215, #87 ) ) ;
#304 = PRODUCT ( 'TAP COLLET ER 25G  4.0 X 3.0', 'TAP COLLET ER 25G  4.0 X 3.0', '', ( #268 ) ) ;
#305 = CARTESIAN_POINT ( 'NONE',  ( 13.03657776635556700, 1.596520323340289600E-015, 7.842050807568876200 ) ) ;
#306 =( NAMED_UNIT ( * ) PLANE_ANGLE_UNIT ( ) SI_UNIT ( $, .RADIAN. ) );
#307 = CYLINDRICAL_SURFACE ( 'NONE', #387, 11.00000000000000000 ) ;
#308 = PERSON_AND_ORGANIZATION_ROLE ( 'design_supplier' ) ;
#309 = VERTEX_POINT ( 'NONE', #118 ) ;
#310 = EDGE_LOOP ( 'NONE', ( #101, #121, #329, #283 ) ) ;
#311 = AXIS2_PLACEMENT_3D ( 'NONE', #154, #280, #218 ) ;
#312 = DIRECTION ( 'NONE',  ( 1.000000000000000000, 0.0000000000000000000, 0.0000000000000000000 ) ) ;
#313 = EDGE_CURVE ( 'NONE', #125, #309, #333, .T. ) ;
#314 = DIRECTION ( 'NONE',  ( -0.0000000000000000000, -0.0000000000000000000, 1.000000000000000000 ) ) ;
#315 = EDGE_CURVE ( 'NONE', #44, #309, #15, .T. ) ;
#316 = COORDINATED_UNIVERSAL_TIME_OFFSET ( 5, 30, .AHEAD. ) ;
#317 = CC_DESIGN_APPROVAL ( #66, ( #113 ) ) ;
#318 = CIRCLE ( 'NONE', #89, 11.00000000000000000 ) ;
#319 = EDGE_LOOP ( 'NONE', ( #224, #383 ) ) ;
#320 = DIRECTION ( 'NONE',  ( -1.000000000000000000, 0.0000000000000000000, -0.0000000000000000000 ) ) ;
#321 = AXIS2_PLACEMENT_3D ( 'NONE', #136, #6, #109 ) ;
#322 = CARTESIAN_POINT ( 'NONE',  ( 0.0000000000000000000, 9.012603057622234500, 34.00000000000000000 ) ) ;
#323 = CONICAL_SURFACE ( 'NONE', #225, 10.26217568973925200, 0.5235987755982940400 ) ;
#324 = CC_DESIGN_PERSON_AND_ORGANIZATION_ASSIGNMENT ( #45, #308, ( #20 ) ) ;
#325 = DIRECTION ( 'NONE',  ( -0.0000000000000000000, -0.0000000000000000000, 1.000000000000000000 ) ) ;
#326 = AXIS2_PLACEMENT_3D ( 'NONE', #302, #270, #170 ) ;
#327 = ADVANCED_FACE ( 'NONE', ( #92 ), #307, .T. ) ;
#328 = EDGE_CURVE ( 'NONE', #220, #299, #61, .T. ) ;
#329 = ORIENTED_EDGE ( 'NONE', *, *, #102, .F. ) ;
#330 = AXIS2_PLACEMENT_3D ( 'NONE', #322, #60, #99 ) ;
#331 = DIRECTION ( 'NONE',  ( 0.0000000000000000000, -0.0000000000000000000, 1.000000000000000000 ) ) ;
#332 = PRODUCT_RELATED_PRODUCT_CATEGORY ( 'detail', '', ( #304 ) ) ;
#333 = LINE ( 'NONE', #14, #347 ) ;
#334 = APPROVAL_PERSON_ORGANIZATION ( #81, #240, #226 ) ;
#335 = APPLICATION_CONTEXT ( 'configuration controlled 3d designs of mechanical parts and assemblies' ) ;
#336 = DATE_TIME_ROLE ( 'creation_date' ) ;
#337 = FACE_BOUND ( 'NONE', #230, .T. ) ;
#338 = CALENDAR_DATE ( 2019, 9, 4 ) ;
#339 = PRODUCT_DEFINITION_SHAPE ( 'NONE', 'NONE',  #113 ) ;
#340 = PERSON_AND_ORGANIZATION ( #23, #132 ) ;
#341 = CARTESIAN_POINT ( 'NONE',  ( -10.26217568973925200, 1.424397449982127500E-015, 0.0000000000000000000 ) ) ;
#342 = CARTESIAN_POINT ( 'NONE',  ( 0.0000000000000000000, 13.03657776635556700, 7.842050807568883300 ) ) ;
#343 = AXIS2_PLACEMENT_3D ( 'NONE', #142, #184, #203 ) ;
#344 = ORIENTED_EDGE ( 'NONE', *, *, #84, .F. ) ;
#345 = EDGE_LOOP ( 'NONE', ( #344, #350 ) ) ;
#346 = EDGE_CURVE ( 'NONE', #372, #163, #53, .T. ) ;
#347 = VECTOR ( 'NONE', #295, 1000.000000000000200 ) ;
#348 = CARTESIAN_POINT ( 'NONE',  ( -13.03657776635556700, 0.0000000000000000000, 7.842050807568876200 ) ) ;
#349 = CC_DESIGN_DATE_AND_TIME_ASSIGNMENT ( #63, #336, ( #113 ) ) ;
#350 = ORIENTED_EDGE ( 'NONE', *, *, #328, .F. ) ;
#351 = ORIENTED_EDGE ( 'NONE', *, *, #328, .T. ) ;
#352 = DIRECTION ( 'NONE',  ( 1.000000000000000000, 0.0000000000000000000, 0.0000000000000000000 ) ) ;
#353 = APPLICATION_PROTOCOL_DEFINITION ( 'international standard', 'config_control_design', 1994, #377 ) ;
#354 = CALENDAR_DATE ( 2019, 9, 4 ) ;
#355 = FACE_OUTER_BOUND ( 'NONE', #209, .T. ) ;
#356 = EDGE_CURVE ( 'NONE', #372, #210, #97, .T. ) ;
#357 = FACE_OUTER_BOUND ( 'NONE', #21, .T. ) ;
#358 = ORIENTED_EDGE ( 'NONE', *, *, #346, .T. ) ;
#359 = ORIENTED_EDGE ( 'NONE', *, *, #199, .T. ) ;
#360 = CARTESIAN_POINT ( 'NONE',  ( -10.26217568973925200, 1.256754061072695800E-015, 0.0000000000000000000 ) ) ;
#361 = PLANE ( 'NONE',  #32 ) ;
#362 = ORIENTED_EDGE ( 'NONE', *, *, #313, .F. ) ;
#363 =( NAMED_UNIT ( * ) SI_UNIT ( $, .STERADIAN. ) SOLID_ANGLE_UNIT ( ) );
#364 = EDGE_CURVE ( 'NONE', #74, #100, #180, .T. ) ;
#365 = CONICAL_SURFACE ( 'NONE', #262, 13.03657776635556700, 0.1396263401595396500 ) ;
#366 = DIRECTION ( 'NONE',  ( 1.000000000000000000, 0.0000000000000000000, 0.0000000000000000000 ) ) ;
#367 = CIRCLE ( 'NONE', #287, 9.012603057622234500 ) ;
#368 = DESIGN_CONTEXT ( 'detailed design', #335, 'design' ) ;
#369 = CC_DESIGN_PERSON_AND_ORGANIZATION_ASSIGNMENT ( #33, #298, ( #304 ) ) ;
#370 = ORIENTED_EDGE ( 'NONE', *, *, #264, .F. ) ;
#371 = DIRECTION ( 'NONE',  ( 0.0000000000000000000, -0.0000000000000000000, 1.000000000000000000 ) ) ;
#372 = VERTEX_POINT ( 'NONE', #207 ) ;
#373 = ORIENTED_EDGE ( 'NONE', *, *, #293, .T. ) ;
#374 = ADVANCED_FACE ( 'NONE', ( #375 ), #161, .T. ) ;
#375 = FACE_OUTER_BOUND ( 'NONE', #310, .T. ) ;
#376 = AXIS2_PLACEMENT_3D ( 'NONE', #76, #276, #381 ) ;
#377 = APPLICATION_CONTEXT ( 'configuration controlled 3d designs of mechanical parts and assemblies' ) ;
#378 = LOCAL_TIME ( 15, 14, 11.00000000000000000, #316 ) ;
#379 = ORIENTED_EDGE ( 'NONE', *, *, #315, .T. ) ;
#380 = UNCERTAINTY_MEASURE_WITH_UNIT (LENGTH_MEASURE( 1.000000000000000100E-005 ), #77, 'distance_accuracy_value', 'NONE');
#381 = DIRECTION ( 'NONE',  ( -1.000000000000000000, 1.224646799147353200E-016, 0.0000000000000000000 ) ) ;
#382 = EDGE_CURVE ( 'NONE', #141, #46, #367, .T. ) ;
#383 = ORIENTED_EDGE ( 'NONE', *, *, #346, .F. ) ;
#384 = PERSON_AND_ORGANIZATION_ROLE ( 'classification_officer' ) ;
#385 = DIRECTION ( 'NONE',  ( -0.0000000000000000000, -0.0000000000000000000, 1.000000000000000000 ) ) ;
#386 = EDGE_LOOP ( 'NONE', ( #134, #35 ) ) ;
#387 = AXIS2_PLACEMENT_3D ( 'NONE', #144, #47, #140 ) ;
ENDSEC;
END-ISO-10303-21;
